  0
SECTION
  2
HEADER
  9
$ACADVER
  1
AC1015
  9
$ACADMAINTVER
 70
     6
  9
$DWGCODEPAGE
  3
ANSI_1254
  9
$INSBASE
 10
0.0
 20
0.0
 30
0.0
  9
$EXTMIN
 10
0.0
 20
0.0
 30
0.0
  9
$EXTMAX
 10
279.4
 20
215.9
 30
0.0
  9
$LIMMIN
 10
0.0
 20
0.0
  9
$LIMMAX
 10
279.4
 20
215.9
  9
$ORTHOMODE
 70
     0
  9
$REGENMODE
 70
     1
  9
$FILLMODE
 70
     1
  9
$QTEXTMODE
 70
     0
  9
$MIRRTEXT
 70
     1
  9
$LTSCALE
 40
1.0
  9
$ATTMODE
 70
     1
  9
$TEXTSIZE
 40
3.5
  9
$TRACEWID
 40
1.0
  9
$TEXTSTYLE
  7
Standard
  9
$CLAYER
  8
0
  9
$CELTYPE
  6
ByLayer
  9
$CECOLOR
 62
   256
  9
$CELTSCALE
 40
1.0
  9
$DISPSILH
 70
     0
  9
$DIMSCALE
 40
1.0
  9
$DIMASZ
 40
3.5
  9
$DIMEXO
 40
1.0
  9
$DIMDLI
 40
3.75
  9
$DIMRND
 40
0.0
  9
$DIMDLE
 40
0.0
  9
$DIMEXE
 40
1.0
  9
$DIMTP
 40
0.0
  9
$DIMTM
 40
0.0
  9
$DIMTXT
 40
3.5
  9
$DIMCEN
 40
2.5
  9
$DIMTSZ
 40
0.0
  9
$DIMTOL
 70
     0
  9
$DIMLIM
 70
     0
  9
$DIMTIH
 70
     1
  9
$DIMTOH
 70
     1
  9
$DIMSE1
 70
     0
  9
$DIMSE2
 70
     0
  9
$DIMTAD
 70
     1
  9
$DIMZIN
 70
     0
  9
$DIMBLK
  1

  9
$DIMASO
 70
     1
  9
$DIMSHO
 70
     1
  9
$DIMPOST
  1

  9
$DIMAPOST
  1

  9
$DIMALT
 70
     0
  9
$DIMALTD
 70
     3
  9
$DIMALTF
 40
0.0393700787
  9
$DIMLFAC
 40
1.0
  9
$DIMTOFL
 70
     1
  9
$DIMTVP
 40
0.0
  9
$DIMTIX
 70
     0
  9
$DIMSOXD
 70
     0
  9
$DIMSAH
 70
     0
  9
$DIMBLK1
  1

  9
$DIMBLK2
  1

  9
$DIMSTYLE
  2
ISO-25
  9
$DIMCLRD
 70
     0
  9
$DIMCLRE
 70
     0
  9
$DIMCLRT
 70
     0
  9
$DIMTFAC
 40
1.0
  9
$DIMGAP
 40
1.524
  9
$DIMJUST
 70
     0
  9
$DIMSD1
 70
     0
  9
$DIMSD2
 70
     0
  9
$DIMTOLJ
 70
     0
  9
$DIMTZIN
 70
     0
  9
$DIMALTZ
 70
     0
  9
$DIMALTTZ
 70
     0
  9
$DIMUPT
 70
     0
  9
$DIMDEC
 70
     2
  9
$DIMTDEC
 70
     2
  9
$DIMALTU
 70
     2
  9
$DIMALTTD
 70
     3
  9
$DIMTXSTY
  7
Standard
  9
$DIMAUNIT
 70
     0
  9
$DIMADEC
 70
     2
  9
$DIMALTRND
 40
0.0
  9
$DIMAZIN
 70
     0
  9
$DIMDSEP
 70
    44
  9
$DIMATFIT
 70
     3
  9
$DIMFRAC
 70
     0
  9
$DIMLDRBLK
  1

  9
$DIMLUNIT
 70
     2
  9
$DIMLWD
 70
    -2
  9
$DIMLWE
 70
    -2
  9
$DIMTMOVE
 70
     0
  9
$LUNITS
 70
     2
  9
$LUPREC
 70
     2
  9
$SKETCHINC
 40
1.0
  9
$FILLETRAD
 40
10.0
  9
$AUNITS
 70
     0
  9
$AUPREC
 70
     2
  9
$MENU
  1
.
  9
$ELEVATION
 40
0.0
  9
$PELEVATION
 40
0.0
  9
$THICKNESS
 40
0.0
  9
$LIMCHECK
 70
     0
  9
$CHAMFERA
 40
0.0
  9
$CHAMFERB
 40
0.0
  9
$CHAMFERC
 40
0.0
  9
$CHAMFERD
 40
0.0
  9
$SKPOLY
 70
     0
  9
$TDCREATE
 40
2459741.607935752
  9
$TDUCREATE
 40
2459741.482935752
  9
$TDUPDATE
 40
2459741.607936007
  9
$TDUUPDATE
 40
2459741.482936007
  9
$TDINDWG
 40
0.0000000116
  9
$TDUSRTIMER
 40
0.0000000116
  9
$USRTIMER
 70
     1
  9
$ANGBASE
 50
0.0
  9
$ANGDIR
 70
     0
  9
$PDMODE
 70
     0
  9
$PDSIZE
 40
-1.0
  9
$PLINEWID
 40
0.0
  9
$SPLFRAME
 70
     0
  9
$SPLINETYPE
 70
     6
  9
$SPLINESEGS
 70
     8
  9
$HANDSEED
  5
103
  9
$SURFTAB1
 70
     6
  9
$SURFTAB2
 70
     6
  9
$SURFTYPE
 70
     6
  9
$SURFU
 70
     6
  9
$SURFV
 70
     6
  9
$UCSBASE
  2

  9
$UCSNAME
  2

  9
$UCSORG
 10
0.0
 20
0.0
 30
0.0
  9
$UCSXDIR
 10
1.0
 20
0.0
 30
0.0
  9
$UCSYDIR
 10
0.0
 20
1.0
 30
0.0
  9
$UCSORTHOREF
  2

  9
$UCSORTHOVIEW
 70
     0
  9
$UCSORGTOP
 10
0.0
 20
0.0
 30
0.0
  9
$UCSORGBOTTOM
 10
0.0
 20
0.0
 30
0.0
  9
$UCSORGLEFT
 10
0.0
 20
0.0
 30
0.0
  9
$UCSORGRIGHT
 10
0.0
 20
0.0
 30
0.0
  9
$UCSORGFRONT
 10
0.0
 20
0.0
 30
0.0
  9
$UCSORGBACK
 10
0.0
 20
0.0
 30
0.0
  9
$PUCSBASE
  2

  9
$PUCSNAME
  2

  9
$PUCSORG
 10
0.0
 20
0.0
 30
0.0
  9
$PUCSXDIR
 10
1.0
 20
0.0
 30
0.0
  9
$PUCSYDIR
 10
0.0
 20
1.0
 30
0.0
  9
$PUCSORTHOREF
  2

  9
$PUCSORTHOVIEW
 70
     0
  9
$PUCSORGTOP
 10
0.0
 20
0.0
 30
0.0
  9
$PUCSORGBOTTOM
 10
0.0
 20
0.0
 30
0.0
  9
$PUCSORGLEFT
 10
0.0
 20
0.0
 30
0.0
  9
$PUCSORGRIGHT
 10
0.0
 20
0.0
 30
0.0
  9
$PUCSORGFRONT
 10
0.0
 20
0.0
 30
0.0
  9
$PUCSORGBACK
 10
0.0
 20
0.0
 30
0.0
  9
$USERI1
 70
     0
  9
$USERI2
 70
     0
  9
$USERI3
 70
     0
  9
$USERI4
 70
     0
  9
$USERI5
 70
     0
  9
$USERR1
 40
0.0
  9
$USERR2
 40
0.0
  9
$USERR3
 40
0.0
  9
$USERR4
 40
0.0
  9
$USERR5
 40
0.0
  9
$WORLDVIEW
 70
     1
  9
$SHADEDGE
 70
     3
  9
$SHADEDIF
 70
    70
  9
$TILEMODE
 70
     1
  9
$MAXACTVP
 70
    64
  9
$PINSBASE
 10
0.0
 20
0.0
 30
0.0
  9
$PLIMCHECK
 70
     0
  9
$PEXTMIN
 10
1.0000000000E+20
 20
1.0000000000E+20
 30
1.0000000000E+20
  9
$PEXTMAX
 10
-1.0000000000E+20
 20
-1.0000000000E+20
 30
-1.0000000000E+20
  9
$PLIMMIN
 10
0.0
 20
0.0
  9
$PLIMMAX
 10
420.0
 20
297.0
  9
$UNITMODE
 70
     0
  9
$VISRETAIN
 70
     1
  9
$PLINEGEN
 70
     0
  9
$PSLTSCALE
 70
     1
  9
$TREEDEPTH
 70
  3020
  9
$CMLSTYLE
  2
Standard
  9
$CMLJUST
 70
     0
  9
$CMLSCALE
 40
20.0
  9
$PROXYGRAPHICS
 70
     1
  9
$MEASUREMENT
 70
     1
  9
$CELWEIGHT
370
    -1
  9
$ENDCAPS
280
     0
  9
$JOINSTYLE
280
     0
  9
$LWDISPLAY
290
     1
  9
$INSUNITS
 70
     4
  9
$HYPERLINKBASE
  1

  9
$STYLESHEET
  1

  9
$XEDIT
290
     1
  9
$CEPSNTYPE
380
     0
  9
$PSTYLEMODE
290
     1
  9
$FINGERPRINTGUID
  2
{314f4d1f-90db-4cea-ba33-edba96fe51c7}
  9
$VERSIONGUID
  2
{FAEB1C32-E019-11D5-929B-00C0DF256EC4}
  9
$EXTNAMES
290
     1
  9
$PSVPSCALE
 40
0.0
  9
$OLESTARTUP
290
     0
  0
ENDSEC
  0
SECTION
  2
CLASSES
  0
CLASS
  1
ACDBDICTIONARYWDFLT
  2
AcDbDictionaryWithDefault
  3
ObjectDBX Classes
 90
        0
280
     0
281
     0
  0
CLASS
  1
VISUALSTYLE
  2
AcDbVisualStyle
  3
ObjectDBX Classes
 90
     4095
280
     0
281
     0
  0
CLASS
  1
MATERIAL
  2
AcDbMaterial
  3
ObjectDBX Classes
 90
     1153
280
     0
281
     0
  0
CLASS
  1
SCALE
  2
AcDbScale
  3
ObjectDBX Classes
 90
     1153
280
     0
281
     0
  0
CLASS
  1
TABLESTYLE
  2
AcDbTableStyle
  3
ObjectDBX Classes
 90
     4095
280
     0
281
     0
  0
CLASS
  1
MLEADERSTYLE
  2
AcDbMLeaderStyle
  3
ACDB_MLEADERSTYLE_CLASS
 90
     4095
280
     0
281
     0
  0
CLASS
  1
SUN
  2
AcDbSun
  3
SCENEOE
 90
     1153
280
     0
281
     0
  0
CLASS
  1
ACDBPLACEHOLDER
  2
AcDbPlaceHolder
  3
ObjectDBX Classes
 90
        0
280
     0
281
     0
  0
CLASS
  1
LAYOUT
  2
AcDbLayout
  3
ObjectDBX Classes
 90
        0
280
     0
281
     0
  0
ENDSEC
  0
SECTION
  2
TABLES
  0
TABLE
  2
VPORT
  5
8
330
0
100
AcDbSymbolTable
 70
     1
  0
VPORT
  5
29
330
8
100
AcDbSymbolTableRecord
100
AcDbViewportTableRecord
  2
*Active
 70
     0
 10
0.0
 20
0.0
 11
1.0
 21
1.0
 12
139.7
 22
107.95
 13
0.0
 23
0.0
 14
10.0
 24
10.0
 15
10.0
 25
10.0
 16
0.0
 26
0.0
 36
1.0
 17
0.0
 27
0.0
 37
0.0
 40
215.9
 41
1.2941176471
 42
50.0
 43
0.0
 44
0.0
 50
0.0
 51
0.0
 71
     0
 72
  2000
 73
     1
 74
     3
 75
     0
 76
     0
 77
     0
 78
     0
281
     0
 65
     1
110
0.0
120
0.0
130
0.0
111
1.0
121
0.0
131
0.0
112
0.0
122
1.0
132
0.0
 79
     0
146
0.0
  0
ENDTAB
  0
TABLE
  2
LTYPE
  5
5
330
0
100
AcDbSymbolTable
 70
     6
  0
LTYPE
  5
14
330
5
100
AcDbSymbolTableRecord
100
AcDbLinetypeTableRecord
  2
ByBlock
 70
     0
  3

 72
    65
 73
     0
 40
0.0
  0
LTYPE
  5
15
330
5
100
AcDbSymbolTableRecord
100
AcDbLinetypeTableRecord
  2
ByLayer
 70
     0
  3

 72
    65
 73
     0
 40
0.0
  0
LTYPE
  5
16
330
5
100
AcDbSymbolTableRecord
100
AcDbLinetypeTableRecord
  2
Continuous
 70
     0
  3
Solid line
 72
    65
 73
     0
 40
0.0
  0
LTYPE
  5
6E
330
5
100
AcDbSymbolTableRecord
100
AcDbLinetypeTableRecord
  2
HIDDEN
 70
     0
  3
Hidden __ __ __ __ __ __ __ __ __ __ __ __ __ __
 72
    65
 73
     2
 40
1.905
 49
1.27
 74
     0
 49
-0.635
 74
     0
  0
LTYPE
  5
6F
330
5
100
AcDbSymbolTableRecord
100
AcDbLinetypeTableRecord
  2
PHANTOM
 70
     0
  3
Phantom ______  __  __  ______  __  __  ______
 72
    65
 73
     6
 40
12.7
 49
6.35
 74
     0
 49
-1.27
 74
     0
 49
1.27
 74
     0
 49
-1.27
 74
     0
 49
1.27
 74
     0
 49
-1.27
 74
     0
  0
LTYPE
  5
70
330
5
100
AcDbSymbolTableRecord
100
AcDbLinetypeTableRecord
  2
CENTER
 70
     0
  3
Center ____ _ ____ _ ____ _ ____ _ ____ _ ____
 72
    65
 73
     4
 40
10.16
 49
6.35
 74
     0
 49
-1.27
 74
     0
 49
1.27
 74
     0
 49
-1.27
 74
     0
  0
LTYPE
  5
71
330
5
100
AcDbSymbolTableRecord
100
AcDbLinetypeTableRecord
  2
CENTERX2
 70
     0
  3
Center (2x) ________  __  ________  __  _____
 72
    65
 73
     4
 40
20.32
 49
12.7
 74
     0
 49
-2.54
 74
     0
 49
2.54
 74
     0
 49
-2.54
 74
     0
  0
LTYPE
  5
72
330
5
100
AcDbSymbolTableRecord
100
AcDbLinetypeTableRecord
  2
DOT2
 70
     0
  3
Dot (.5x) ........................................
 72
    65
 73
     2
 40
0.635
 49
0.0
 74
     0
 49
-0.635
 74
     0
  0
ENDTAB
  0
TABLE
  2
LAYER
  5
2
330
0
100
AcDbSymbolTable
 70
    17
  0
LAYER
  5
10
330
2
100
AcDbSymbolTableRecord
100
AcDbLayerTableRecord
  2
0
 70
     0
 62
     7
  6
Continuous
370
    -3
390
F
  0
LAYER
  5
73
330
2
100
AcDbSymbolTableRecord
100
AcDbLayerTableRecord
  2
FORMAT
 70
     0
 62
     7
  6
Continuous
370
    -3
390
F
  0
LAYER
  5
74
330
2
100
AcDbSymbolTableRecord
100
AcDbLayerTableRecord
  2
YARDIMCI_GEOMETRI
 70
     0
 62
    -6
  6
Continuous
290
     0
370
    -3
390
F
  0
LAYER
  5
75
330
2
100
AcDbSymbolTableRecord
100
AcDbLayerTableRecord
  2
SAYFA_CERCEVESI
 70
     0
 62
     7
  6
Continuous
370
    25
390
F
  0
LAYER
  5
76
330
2
100
AcDbSymbolTableRecord
100
AcDbLayerTableRecord
  2
ANTET
 70
     0
 62
     7
  6
Continuous
370
    -3
390
F
  0
LAYER
  5
77
330
2
100
AcDbSymbolTableRecord
100
AcDbLayerTableRecord
  2
OLCU
 70
     0
 62
   150
  6
Continuous
370
    -3
390
F
  0
LAYER
  5
78
330
2
100
AcDbSymbolTableRecord
100
AcDbLayerTableRecord
  2
METIN
 70
     0
 62
    96
  6
Continuous
370
    -3
390
F
  0
LAYER
  5
79
330
2
100
AcDbSymbolTableRecord
100
AcDbLayerTableRecord
  2
BALON
 70
     0
 62
     5
  6
Continuous
370
    -3
390
F
  0
LAYER
  5
7A
330
2
100
AcDbSymbolTableRecord
100
AcDbLayerTableRecord
  2
VURGU
 70
     0
 62
     7
  6
Continuous
370
    -3
390
F
  0
LAYER
  5
7B
330
2
100
AcDbSymbolTableRecord
100
AcDbLayerTableRecord
  2
SILIK
 70
     0
 62
     7
  6
Continuous
370
    -3
390
F
  0
LAYER
  5
7C
330
2
100
AcDbSymbolTableRecord
100
AcDbLayerTableRecord
  2
MODEL
 70
     0
 62
     7
  6
Continuous
370
    -3
390
F
  0
LAYER
  5
7D
330
2
100
AcDbSymbolTableRecord
100
AcDbLayerTableRecord
  2
DETAYLANDıRMA
 70
     0
 62
   190
  6
Continuous
370
    -3
390
F
  0
LAYER
  5
7E
330
2
100
AcDbSymbolTableRecord
100
AcDbLayerTableRecord
  2
TOLERANS
 70
     0
 62
   230
  6
Continuous
370
    -3
390
F
  0
LAYER
  5
7F
330
2
100
AcDbSymbolTableRecord
100
AcDbLayerTableRecord
  2
MERKEZ_CIZGILERI
 70
     0
 62
    30
  6
Continuous
370
    -3
390
F
  0
LAYER
  5
80
330
2
100
AcDbSymbolTableRecord
100
AcDbLayerTableRecord
  2
KESIT-DETAY_CIZGILERI
 70
     0
 62
     7
  6
Continuous
370
    -3
390
F
  0
LAYER
  5
81
330
2
100
AcDbSymbolTableRecord
100
AcDbLayerTableRecord
  2
\U+041E\U+0421\U+0415\U+0412\U+042B\U+0415
 70
     0
 62
     7
  6
Continuous
370
    -3
390
F
  0
LAYER
  5
82
330
2
100
AcDbSymbolTableRecord
100
AcDbLayerTableRecord
  2
\U+0412\U+041E\U+0414\U+042F\U+041D\U+042B\U+0415_\U+0417\U+041D\U+0410\U+041A\U+0418
 70
     0
 62
    11
  6
Continuous
370
    -3
390
F
  0
ENDTAB
  0
TABLE
  2
STYLE
  5
3
330
0
100
AcDbSymbolTable
 70
     1
  0
STYLE
  5
11
330
3
100
AcDbSymbolTableRecord
100
AcDbTextStyleTableRecord
  2
Standard
 70
     0
 40
0.0
 41
1.0
 50
0.0
 71
     0
 42
3.5
  3
txt
  4

  0
ENDTAB
  0
TABLE
  2
VIEW
  5
6
330
0
100
AcDbSymbolTable
 70
     0
  0
ENDTAB
  0
TABLE
  2
UCS
  5
7
330
0
100
AcDbSymbolTable
 70
     0
  0
ENDTAB
  0
TABLE
  2
APPID
  5
9
330
0
100
AcDbSymbolTable
 70
     1
  0
APPID
  5
12
330
9
100
AcDbSymbolTableRecord
100
AcDbRegAppTableRecord
  2
ACAD
 70
     0
  0
ENDTAB
  0
TABLE
  2
DIMSTYLE
  5
A
330
0
100
AcDbSymbolTable
 70
     1
100
AcDbDimStyleTable
  0
DIMSTYLE
105
27
330
A
100
AcDbSymbolTableRecord
100
AcDbDimStyleTableRecord
  2
ISO-25
 70
     0
 41
2.5
 42
0.625
 43
3.75
 44
1.25
 73
     0
 74
     0
 77
     1
 78
     8
140
2.5
141
2.5
143
0.0393700787
147
0.625
171
     3
172
     1
178
     0
271
     2
272
     2
274
     3
278
    44
283
     0
284
     8
340
11
  0
ENDTAB
  0
TABLE
  2
BLOCK_RECORD
  5
1
330
0
100
AcDbSymbolTable
 70
     5
  0
BLOCK_RECORD
  5
1F
330
1
100
AcDbSymbolTableRecord
100
AcDbBlockTableRecord
  2
*Model_Space
340
22
  0
BLOCK_RECORD
  5
1B
330
1
100
AcDbSymbolTableRecord
100
AcDbBlockTableRecord
  2
*Paper_Space
340
1E
  0
BLOCK_RECORD
  5
23
330
1
100
AcDbSymbolTableRecord
100
AcDbBlockTableRecord
  2
*Paper_Space0
340
26
  0
BLOCK_RECORD
  5
8C
330
1
100
AcDbSymbolTableRecord
100
AcDbBlockTableRecord
  2
SW_CENTERMARKSYMBOL_0
340
0
102
{BLKREFS
331
97
102
}
  0
BLOCK_RECORD
  5
AA
330
1
100
AcDbSymbolTableRecord
100
AcDbBlockTableRecord
  2
SW_CENTERMARKSYMBOL_1
340
0
102
{BLKREFS
331
B5
102
}
  0
BLOCK_RECORD
  5
DA
330
1
100
AcDbSymbolTableRecord
100
AcDbBlockTableRecord
  2
SW_CENTERMARKSYMBOL_2
340
0
102
{BLKREFS
331
E5
102
}
  0
BLOCK_RECORD
  5
E6
330
1
100
AcDbSymbolTableRecord
100
AcDbBlockTableRecord
  2
SW_CENTERMARKSYMBOL_3
340
0
102
{BLKREFS
331
F1
102
}
  0
ENDTAB
  0
ENDSEC
  0
SECTION
  2
BLOCKS
  0
BLOCK
  5
20
330
1F
100
AcDbEntity
  8
0
100
AcDbBlockBegin
  2
*Model_Space
 70
     0
 10
0.0
 20
0.0
 30
0.0
  3
*Model_Space
  1

  0
ENDBLK
  5
21
330
1F
100
AcDbEntity
  8
0
100
AcDbBlockEnd
  0
BLOCK
  5
1C
330
1B
100
AcDbEntity
 67
     1
  8
0
100
AcDbBlockBegin
  2
*Paper_Space
 70
     0
 10
0.0
 20
0.0
 30
0.0
  3
*Paper_Space
  1

  0
ENDBLK
  5
1D
330
1B
100
AcDbEntity
 67
     1
  8
0
100
AcDbBlockEnd
  0
BLOCK
  5
24
330
23
100
AcDbEntity
  8
0
100
AcDbBlockBegin
  2
*Paper_Space0
 70
     0
 10
0.0
 20
0.0
 30
0.0
  3
*Paper_Space0
  1

  0
ENDBLK
  5
25
330
23
100
AcDbEntity
  8
0
100
AcDbBlockEnd
  0
BLOCK
  5
8D
330
8C
100
AcDbEntity
  8
0
100
AcDbBlockBegin
  2
SW_CENTERMARKSYMBOL_0
 70
     0
 10
0.0
 20
0.0
 30
0.0
  3
SW_CENTERMARKSYMBOL_0
  1

  0
LINE
  5
8F
330
8C
100
AcDbEntity
  8
FORMAT
 62
     0
100
AcDbLine
 10
0.0
 20
0.0
 30
0.0
 11
0.0
 21
2.5
 31
0.0
  0
LINE
  5
90
330
8C
100
AcDbEntity
  8
FORMAT
 62
     0
100
AcDbLine
 10
0.0
 20
0.0
 30
0.0
 11
-2.5
 21
0.0
 31
0.0
  0
LINE
  5
91
330
8C
100
AcDbEntity
  8
FORMAT
 62
     0
100
AcDbLine
 10
0.0
 20
0.0
 30
0.0
 11
0.0
 21
-2.5
 31
0.0
  0
LINE
  5
92
330
8C
100
AcDbEntity
  8
FORMAT
 62
     0
100
AcDbLine
 10
0.0
 20
0.0
 30
0.0
 11
2.5
 21
0.0
 31
0.0
  0
LINE
  5
93
330
8C
100
AcDbEntity
  8
FORMAT
 62
     0
100
AcDbLine
 10
0.0
 20
5.0
 30
0.0
 11
0.0
 21
117.5
 31
0.0
  0
LINE
  5
94
330
8C
100
AcDbEntity
  8
FORMAT
 62
     0
100
AcDbLine
 10
-5.0
 20
0.0
 30
0.0
 11
-117.5
 21
0.0
 31
0.0
  0
LINE
  5
95
330
8C
100
AcDbEntity
  8
FORMAT
 62
     0
100
AcDbLine
 10
0.0
 20
-5.0
 30
0.0
 11
0.0
 21
-117.5
 31
0.0
  0
LINE
  5
96
330
8C
100
AcDbEntity
  8
FORMAT
 62
     0
100
AcDbLine
 10
5.0
 20
0.0
 30
0.0
 11
117.5
 21
0.0
 31
0.0
  0
ENDBLK
  5
8E
330
8C
100
AcDbEntity
  8
0
100
AcDbBlockEnd
  0
BLOCK
  5
AB
330
AA
100
AcDbEntity
  8
0
100
AcDbBlockBegin
  2
SW_CENTERMARKSYMBOL_1
 70
     0
 10
0.0
 20
0.0
 30
0.0
  3
SW_CENTERMARKSYMBOL_1
  1

  0
LINE
  5
AD
330
AA
100
AcDbEntity
  8
FORMAT
 62
     0
100
AcDbLine
 10
0.0
 20
0.0
 30
0.0
 11
0.0
 21
2.5
 31
0.0
  0
LINE
  5
AE
330
AA
100
AcDbEntity
  8
FORMAT
 62
     0
100
AcDbLine
 10
0.0
 20
0.0
 30
0.0
 11
-2.5
 21
0.0
 31
0.0
  0
LINE
  5
AF
330
AA
100
AcDbEntity
  8
FORMAT
 62
     0
100
AcDbLine
 10
0.0
 20
0.0
 30
0.0
 11
0.0
 21
-2.5
 31
0.0
  0
LINE
  5
B0
330
AA
100
AcDbEntity
  8
FORMAT
 62
     0
100
AcDbLine
 10
0.0
 20
0.0
 30
0.0
 11
2.5
 21
0.0
 31
0.0
  0
LINE
  5
B1
330
AA
100
AcDbEntity
  8
FORMAT
 62
     0
100
AcDbLine
 10
0.0
 20
5.0
 30
0.0
 11
0.0
 21
92.5
 31
0.0
  0
LINE
  5
B2
330
AA
100
AcDbEntity
  8
FORMAT
 62
     0
100
AcDbLine
 10
-5.0
 20
0.0
 30
0.0
 11
-92.5
 21
0.0
 31
0.0
  0
LINE
  5
B3
330
AA
100
AcDbEntity
  8
FORMAT
 62
     0
100
AcDbLine
 10
0.0
 20
-5.0
 30
0.0
 11
0.0
 21
-92.5
 31
0.0
  0
LINE
  5
B4
330
AA
100
AcDbEntity
  8
FORMAT
 62
     0
100
AcDbLine
 10
5.0
 20
0.0
 30
0.0
 11
92.5
 21
0.0
 31
0.0
  0
ENDBLK
  5
AC
330
AA
100
AcDbEntity
  8
0
100
AcDbBlockEnd
  0
BLOCK
  5
DB
330
DA
100
AcDbEntity
  8
0
100
AcDbBlockBegin
  2
SW_CENTERMARKSYMBOL_2
 70
     0
 10
0.0
 20
0.0
 30
0.0
  3
SW_CENTERMARKSYMBOL_2
  1

  0
LINE
  5
DD
330
DA
100
AcDbEntity
  8
FORMAT
 62
     0
100
AcDbLine
 10
0.0
 20
0.0
 30
0.0
 11
0.0
 21
2.5
 31
0.0
  0
LINE
  5
DE
330
DA
100
AcDbEntity
  8
FORMAT
 62
     0
100
AcDbLine
 10
0.0
 20
0.0
 30
0.0
 11
-2.5
 21
0.0
 31
0.0
  0
LINE
  5
DF
330
DA
100
AcDbEntity
  8
FORMAT
 62
     0
100
AcDbLine
 10
0.0
 20
0.0
 30
0.0
 11
0.0
 21
-2.5
 31
0.0
  0
LINE
  5
E0
330
DA
100
AcDbEntity
  8
FORMAT
 62
     0
100
AcDbLine
 10
0.0
 20
0.0
 30
0.0
 11
2.5
 21
0.0
 31
0.0
  0
LINE
  5
E1
330
DA
100
AcDbEntity
  8
FORMAT
 62
     0
100
AcDbLine
 10
0.0
 20
5.0
 30
0.0
 11
0.0
 21
9.5
 31
0.0
  0
LINE
  5
E2
330
DA
100
AcDbEntity
  8
FORMAT
 62
     0
100
AcDbLine
 10
-5.0
 20
0.0
 30
0.0
 11
-9.5
 21
0.0
 31
0.0
  0
LINE
  5
E3
330
DA
100
AcDbEntity
  8
FORMAT
 62
     0
100
AcDbLine
 10
0.0
 20
-5.0
 30
0.0
 11
0.0
 21
-9.5
 31
0.0
  0
LINE
  5
E4
330
DA
100
AcDbEntity
  8
FORMAT
 62
     0
100
AcDbLine
 10
5.0
 20
0.0
 30
0.0
 11
9.5
 21
0.0
 31
0.0
  0
ENDBLK
  5
DC
330
DA
100
AcDbEntity
  8
0
100
AcDbBlockEnd
  0
BLOCK
  5
E7
330
E6
100
AcDbEntity
  8
0
100
AcDbBlockBegin
  2
SW_CENTERMARKSYMBOL_3
 70
     0
 10
0.0
 20
0.0
 30
0.0
  3
SW_CENTERMARKSYMBOL_3
  1

  0
LINE
  5
E9
330
E6
100
AcDbEntity
  8
FORMAT
 62
     0
100
AcDbLine
 10
0.0
 20
0.0
 30
0.0
 11
0.0
 21
2.5
 31
0.0
  0
LINE
  5
EA
330
E6
100
AcDbEntity
  8
FORMAT
 62
     0
100
AcDbLine
 10
0.0
 20
0.0
 30
0.0
 11
-2.5
 21
0.0
 31
0.0
  0
LINE
  5
EB
330
E6
100
AcDbEntity
  8
FORMAT
 62
     0
100
AcDbLine
 10
0.0
 20
0.0
 30
0.0
 11
0.0
 21
-2.5
 31
0.0
  0
LINE
  5
EC
330
E6
100
AcDbEntity
  8
FORMAT
 62
     0
100
AcDbLine
 10
0.0
 20
0.0
 30
0.0
 11
2.5
 21
0.0
 31
0.0
  0
LINE
  5
ED
330
E6
100
AcDbEntity
  8
FORMAT
 62
     0
100
AcDbLine
 10
0.0
 20
5.0
 30
0.0
 11
0.0
 21
9.5
 31
0.0
  0
LINE
  5
EE
330
E6
100
AcDbEntity
  8
FORMAT
 62
     0
100
AcDbLine
 10
-5.0
 20
0.0
 30
0.0
 11
-9.5
 21
0.0
 31
0.0
  0
LINE
  5
EF
330
E6
100
AcDbEntity
  8
FORMAT
 62
     0
100
AcDbLine
 10
0.0
 20
-5.0
 30
0.0
 11
0.0
 21
-9.5
 31
0.0
  0
LINE
  5
F0
330
E6
100
AcDbEntity
  8
FORMAT
 62
     0
100
AcDbLine
 10
5.0
 20
0.0
 30
0.0
 11
9.5
 21
0.0
 31
0.0
  0
ENDBLK
  5
E8
330
E6
100
AcDbEntity
  8
0
100
AcDbBlockEnd
  0
ENDSEC
  0
SECTION
  2
ENTITIES
  0
LINE
  5
83
330
1F
100
AcDbEntity
  8
0
  6
Continuous
 62
     7
370
    25
100
AcDbLine
 10
121.3295369748
 20
226.3235813097
 30
0.0
 11
121.3295369748
 21
238.5314365546
 31
0.0
  0
LINE
  5
84
330
1F
100
AcDbEntity
  8
0
  6
Continuous
 62
     7
370
    25
100
AcDbLine
 10
107.3295369748
 20
238.5314365546
 30
0.0
 11
107.3295369748
 21
226.3187238715
 31
0.0
  0
LINE
  5
85
330
1F
100
AcDbEntity
  8
0
  6
Continuous
 62
     7
370
    25
100
AcDbLine
 10
185.9584203438
 20
21.5314365546
 30
0.0
 11
344.3295369748
 21
21.5314365546
 31
0.0
  0
LINE
  5
86
330
1F
100
AcDbEntity
  8
0
  6
Continuous
 62
     7
370
    25
100
AcDbLine
 10
344.3295369748
 20
201.5314365546
 30
0.0
 11
186.0009902065
 21
201.5314365546
 31
0.0
  0
CIRCLE
  5
87
330
1F
100
AcDbEntity
  8
0
  6
Continuous
 62
     7
370
    25
100
AcDbCircle
 10
114.3295369748
 20
111.5314365546
 30
0.0
 40
90.00000000000003
  0
CIRCLE
  5
88
330
1F
100
AcDbEntity
  8
0
  6
Continuous
 62
     7
370
    25
100
AcDbCircle
 10
114.3295369748
 20
111.5314365546
 30
0.0
 40
115.0
  0
LINE
  5
89
330
1F
100
AcDbEntity
  8
0
  6
Continuous
 62
     7
370
    25
100
AcDbLine
 10
114.3295369748
 20
238.5314365546
 30
0.0
 11
107.3295369748
 21
238.5314365546
 31
0.0
  0
LINE
  5
8A
330
1F
100
AcDbEntity
  8
0
  6
Continuous
 62
     7
370
    25
100
AcDbLine
 10
121.3295369748
 20
238.5314365546
 30
0.0
 11
114.3295369748
 21
238.5314365546
 31
0.0
  0
LINE
  5
8B
330
1F
100
AcDbEntity
  8
0
  6
Continuous
 62
     7
370
    25
100
AcDbLine
 10
344.3295369748
 20
201.5314365546
 30
0.0
 11
344.3295369748
 21
21.5314365546
 31
0.0
  0
INSERT
  5
97
330
1F
100
AcDbEntity
  8
FORMAT
 62
     7
100
AcDbBlockReference
  2
SW_CENTERMARKSYMBOL_0
 10
114.3295369748
 20
111.5314365546
 30
0.0
  0
LINE
  5
98
330
1F
100
AcDbEntity
  8
0
  6
Continuous
 62
     7
370
    25
100
AcDbLine
 10
-463.696050245
 20
226.5314365546
 30
0.0
 11
-464.7821583348
 21
226.5314365546
 31
0.0
  0
LINE
  5
99
330
1F
100
AcDbEntity
  8
0
  6
Continuous
 62
     7
370
    25
100
AcDbLine
 10
-139.696050245
 20
226.5314365546
 30
0.0
 11
-449.7821583348
 21
226.5314365546
 31
0.0
  0
LINE
  5
9A
330
1F
100
AcDbEntity
  8
0
  6
Continuous
 62
     7
370
    25
100
AcDbLine
 10
-124.7821583348
 20
226.5314365546
 30
0.0
 11
-125.7821583348
 21
226.5314365546
 31
0.0
  0
LINE
  5
9B
330
1F
100
AcDbEntity
  8
0
  6
Continuous
 62
     7
370
    25
100
AcDbLine
 10
-464.7821583348
 20
-3.4685634454
 30
0.0
 11
-124.7821583348
 21
-3.4685634454
 31
0.0
  0
LINE
  5
9C
330
1F
100
AcDbEntity
  8
0
  6
Continuous
 62
     7
370
    25
100
AcDbLine
 10
-125.7821583348
 20
226.5314365546
 30
0.0
 11
-125.7821583348
 21
238.5314365546
 31
0.0
  0
LINE
  5
9D
330
1F
100
AcDbEntity
  8
0
  6
Continuous
 62
     7
370
    25
100
AcDbLine
 10
-139.7821583348
 20
238.5314365546
 30
0.0
 11
-139.7821583348
 21
226.52626625
 31
0.0
  0
LINE
  5
9E
330
1F
100
AcDbEntity
  8
0
  6
Continuous
 62
     7
370
    25
100
AcDbLine
 10
-449.7821583348
 20
226.5314365546
 30
0.0
 11
-449.7821583348
 21
238.5314365546
 31
0.0
  0
LINE
  5
9F
330
1F
100
AcDbEntity
  8
0
  6
Continuous
 62
     7
370
    25
100
AcDbLine
 10
-463.7821583348
 20
238.5314365546
 30
0.0
 11
-463.7821583348
 21
226.52626625
 31
0.0
  0
CIRCLE
  5
A0
330
1F
100
AcDbEntity
  8
0
  6
Continuous
 62
     7
370
    25
100
AcDbCircle
 10
-294.7821583348
 20
111.5314365546
 30
0.0
 40
73.60000000000002
  0
CIRCLE
  5
A1
330
1F
100
AcDbEntity
  8
0
  6
Continuous
 62
     7
370
    25
100
AcDbCircle
 10
-294.7821583348
 20
111.5314365546
 30
0.0
 40
90.00000000000003
  0
LINE
  5
A2
330
1F
100
AcDbEntity
  8
0
  6
Continuous
 62
     7
370
    25
100
AcDbLine
 10
-464.7821583348
 20
111.5314365546
 30
0.0
 11
-464.7821583348
 21
226.5314365546
 31
0.0
  0
LINE
  5
A3
330
1F
100
AcDbEntity
  8
0
  6
Continuous
 62
     7
370
    25
100
AcDbLine
 10
-464.7821583348
 20
-3.4685634454
 30
0.0
 11
-464.7821583348
 21
111.5314365546
 31
0.0
  0
SPLINE
  5
A4
330
1F
100
AcDbEntity
  8
0
  6
Continuous
 62
     7
370
    25
100
AcDbSpline
210
0.0
220
0.0
230
1.0
 70
     8
 71
     3
 72
    17
 73
    13
 74
     0
 42
0.00000001
 43
0.00000001
 40
0.0
 40
0.0
 40
0.0
 40
0.0
 40
0.1072352722355027
 40
0.214465752264569
 40
0.3218206845014313
 40
0.4292576403523458
 40
0.5365590264694793
 40
0.6437188047099648
 40
0.7509519359282465
 40
0.8583587733869308
 40
0.9657688632502177
 40
1.0
 40
1.0
 40
1.0
 40
1.0
 10
-125.7821583347999
 20
226.5314365546218
 30
0.0
 10
-125.8594073497217
 20
226.5266005006468
 30
0.0
 10
-126.0139019274063
 20
226.5169286088137
 30
0.0
 10
-127.2180588325328
 20
226.4496735000963
 30
0.0
 10
-128.992592603629
 20
226.3748284684025
 30
0.0
 10
-131.2102776748714
 20
226.3209146331121
 30
0.0
 10
-133.601356011649
 20
226.3128886840943
 30
0.0
 10
-135.895284724695
 20
226.3535714893962
 30
0.0
 10
-137.8537888949972
 20
226.426251984087
 30
0.0
 10
-139.1873879567552
 20
226.4952009871373
 30
0.0
 10
-139.8209647207611
 20
226.533767099991
 30
0.0
 10
-139.7203631297933
 20
226.5277105860338
 30
0.0
 10
-139.6960502450491
 20
226.5262468783094
 30
0.0
  0
SPLINE
  5
A5
330
1F
100
AcDbEntity
  8
0
  6
Continuous
 62
     7
370
    25
100
AcDbSpline
210
0.0
220
0.0
230
1.0
 70
     8
 71
     3
 72
    17
 73
    13
 74
     0
 42
0.00000001
 43
0.00000001
 40
0.0
 40
0.0
 40
0.0
 40
0.0
 40
0.1072352722355027
 40
0.2144657522645691
 40
0.3218206845014314
 40
0.4292576403523459
 40
0.5365590264694795
 40
0.643718804709965
 40
0.7509519359282467
 40
0.858358773386931
 40
0.965768863250218
 40
1.0
 40
1.0
 40
1.0
 40
1.0
 10
-449.7821583347999
 20
226.5314365546218
 30
0.0
 10
-449.8594073497217
 20
226.5266005006468
 30
0.0
 10
-450.0139019274062
 20
226.5169286088137
 30
0.0
 10
-451.2180588325329
 20
226.4496735000964
 30
0.0
 10
-452.9925926036291
 20
226.3748284684024
 30
0.0
 10
-455.2102776748713
 20
226.3209146331121
 30
0.0
 10
-457.601356011649
 20
226.3128886840943
 30
0.0
 10
-459.895284724695
 20
226.3535714893963
 30
0.0
 10
-461.8537888949973
 20
226.4262519840869
 30
0.0
 10
-463.1873879567552
 20
226.4952009871374
 30
0.0
 10
-463.8209647207612
 20
226.533767099991
 30
0.0
 10
-463.7203631297934
 20
226.5277105860339
 30
0.0
 10
-463.6960502450491
 20
226.5262468783094
 30
0.0
  0
LINE
  5
A6
330
1F
100
AcDbEntity
  8
0
  6
Continuous
 62
     7
370
    25
100
AcDbLine
 10
-124.7821583348
 20
111.5314365546
 30
0.0
 11
-124.7821583348
 21
226.5314365546
 31
0.0
  0
LINE
  5
A7
330
1F
100
AcDbEntity
  8
0
  6
Continuous
 62
     7
370
    25
100
AcDbLine
 10
-124.7821583348
 20
-3.4685634454
 30
0.0
 11
-124.7821583348
 21
111.5314365546
 31
0.0
  0
LINE
  5
A8
330
1F
100
AcDbEntity
  8
0
  6
Continuous
 62
     7
370
    25
100
AcDbLine
 10
-125.7821583348
 20
238.5314365546
 30
0.0
 11
-139.7821583348
 21
238.5314365546
 31
0.0
  0
LINE
  5
A9
330
1F
100
AcDbEntity
  8
0
  6
Continuous
 62
     7
370
    25
100
AcDbLine
 10
-449.7821583348
 20
238.5314365546
 30
0.0
 11
-463.7821583348
 21
238.5314365546
 31
0.0
  0
INSERT
  5
B5
330
1F
100
AcDbEntity
  8
FORMAT
 62
     7
100
AcDbBlockReference
  2
SW_CENTERMARKSYMBOL_1
 10
-294.7821583348
 20
111.5314365546
 30
0.0
  0
LINE
  5
B6
330
1F
100
AcDbEntity
  8
0
  6
Continuous
 62
     7
370
    25
100
AcDbLine
 10
229.3295369748
 20
562.0888299348
 30
0.0
 11
229.3295369748
 21
642.0888299348
 31
0.0
  0
LINE
  5
B7
330
1F
100
AcDbEntity
  8
0
  6
Continuous
 62
     7
370
    25
100
AcDbLine
 10
229.3295369748
 20
302.0888299348
 30
0.0
 11
229.3295369748
 21
382.1029171801
 31
0.0
  0
LINE
  5
B8
330
1F
100
AcDbEntity
  8
0
  6
Continuous
 62
     7
370
    25
100
AcDbLine
 10
-0.6704630252
 20
642.0888299348
 30
0.0
 11
-0.6704630252
 21
302.0888299348
 31
0.0
  0
LINE
  5
B9
330
1F
100
AcDbEntity
  8
0
  6
Continuous
 62
     7
370
    25
100
AcDbLine
 10
229.3185204531
 20
382.0888299348
 30
0.0
 11
344.3295369748
 21
382.0888299348
 31
0.0
  0
LINE
  5
BA
330
1F
100
AcDbEntity
  8
0
  6
Continuous
 62
     7
370
    25
100
AcDbLine
 10
344.3295369748
 20
562.0888299348
 30
0.0
 11
229.3295369748
 21
562.0888299348
 31
0.0
  0
SPLINE
  5
BB
330
1F
100
AcDbEntity
  8
0
  6
Continuous
 62
     7
370
    25
100
AcDbSpline
210
0.0
220
0.0
230
1.0
 70
     8
 71
     3
 72
    49
 73
    45
 74
     0
 42
0.00000001
 43
0.00000001
 40
0.0
 40
0.0
 40
0.0
 40
0.0
 40
0.0214323314932203
 40
0.0430398741807792
 40
0.0651868615614651
 40
0.0875118172989934
 40
0.1089401431099059
 40
0.1305060853360233
 40
0.1524687414443561
 40
0.1745532152039196
 40
0.2031744563889015
 40
0.2320117892780717
 40
0.261469714984727
 40
0.2911217270350385
 40
0.3201345020087064
 40
0.3493336308562418
 40
0.3791911552908186
 40
0.409335428588083
 40
0.4264654227086293
 40
0.4436830536248189
 40
0.4612170426728006
 40
0.4788812243395
 40
0.4960186979360917
 40
0.5132994173978219
 40
0.5310268755060543
 40
0.5489015469947236
 40
0.5692861762278142
 40
0.5898358854655055
 40
0.6108173119164788
 40
0.6319156537834624
 40
0.6613019908221685
 40
0.6909064108509109
 40
0.7211325308430052
 40
0.7515618600052052
 40
0.7813632225654872
 40
0.8113857135766288
 40
0.8421903803673668
 40
0.8733126171828445
 40
0.8944003470520171
 40
0.915617164444064
 40
0.9372694361834458
 40
0.9590856051973812
 40
0.9801782863748691
 40
1.0
 40
1.0
 40
1.0
 40
1.0
 10
229.3295369747899
 20
562.0888299348161
 30
0.0
 10
229.2951895009452
 20
562.0449629411393
 30
0.0
 10
229.2262137596374
 20
561.9568703372553
 30
0.0
 10
228.6660154441116
 20
561.2400543163102
 30
0.0
 10
227.7674976526089
 20
560.0855560507232
 30
0.0
 10
226.5232260781422
 20
558.4767291046848
 30
0.0
 10
224.9858891872634
 20
556.4717684184211
 30
0.0
 10
223.1861667994601
 20
554.0992480524844
 30
0.0
 10
221.1234525326448
 20
551.3430828357436
 30
0.0
 10
218.6019225626514
 20
547.9171329617411
 30
0.0
 10
215.5900966576028
 20
543.7302365868034
 30
0.0
 10
212.0648198643462
 20
538.6638392627459
 30
0.0
 10
208.3361775508486
 20
533.0712454237124
 30
0.0
 10
204.5209395843544
 20
527.0221912764896
 30
0.0
 10
200.730197131828
 20
520.5661419325544
 30
0.0
 10
197.0453926157919
 20
513.676677547539
 30
0.0
 10
193.5574125751204
 20
506.2662474368564
 30
0.0
 10
190.8954237366638
 20
499.4725882504425
 30
0.0
 10
189.0197241815118
 20
493.5518690910411
 30
0.0
 10
187.7571808858799
 20
488.6558420757132
 30
0.0
 10
186.7772756436455
 20
483.5913012673317
 30
0.0
 10
186.1384707864477
 20
478.4425970607803
 30
0.0
 10
185.8666732479609
 20
473.2659591136201
 30
0.0
 10
185.9679647488965
 20
468.0727496150529
 30
0.0
 10
186.4508354827643
 20
462.8407632320038
 30
0.0
 10
187.3457297066028
 20
457.3843953563516
 30
0.0
 10
188.6732708477666
 20
451.7855634663491
 30
0.0
 10
190.4367617327258
 20
446.0755504391459
 30
0.0
 10
192.5215107272401
 20
440.5067443420577
 30
0.0
 10
195.1669747374018
 20
434.4003034059639
 30
0.0
 10
198.3942675171076
 20
427.889423047899
 30
0.0
 10
202.1839166145323
 20
421.068043585271
 30
0.0
 10
206.0962089468606
 20
414.6076234134957
 30
0.0
 10
209.9895271991474
 20
408.590730761645
 30
0.0
 10
213.7516606709359
 20
403.0635096184913
 30
0.0
 10
217.3197682954979
 20
398.0234576672509
 30
0.0
 10
220.6338404088572
 20
393.4864546040518
 30
0.0
 10
223.2599491769846
 20
389.9785305533043
 30
0.0
 10
225.2454288573837
 20
387.3661597528567
 30
0.0
 10
226.708034573949
 20
385.4613267659749
 30
0.0
 10
227.8886717225698
 20
383.9361149583286
 30
0.0
 10
228.7298652919444
 20
382.8558138228829
 30
0.0
 10
229.2423416972981
 20
382.2001976561555
 30
0.0
 10
229.2936562330425
 20
382.1346654396843
 30
0.0
 10
229.3185164817946
 20
382.102917180071
 30
0.0
  0
LINE
  5
BC
330
1F
100
AcDbEntity
  8
0
  6
Continuous
 62
     7
370
    25
100
AcDbLine
 10
-0.6704630252
 20
642.0888299348
 30
0.0
 11
229.3295369748
 21
642.0888299348
 31
0.0
  0
LINE
  5
BD
330
1F
100
AcDbEntity
  8
0
  6
Continuous
 62
     7
370
    25
100
AcDbLine
 10
-0.6704630252
 20
302.0888299348
 30
0.0
 11
229.3295369748
 21
302.0888299348
 31
0.0
  0
LINE
  5
BE
330
1F
100
AcDbEntity
  8
0
  6
Continuous
 62
     7
370
    25
100
AcDbLine
 10
344.3295369748
 20
562.0888299348
 30
0.0
 11
344.3295369748
 21
382.0888299348
 31
0.0
  0
LINE
  5
BF
330
1F
100
AcDbEntity
  8
0
  6
Continuous
 62
     7
370
    25
100
AcDbLine
 10
432.0684475861
 20
-3.4685634454
 30
0.0
 11
772.0684475861
 21
-3.4685634454
 31
0.0
  0
LINE
  5
C0
330
1F
100
AcDbEntity
  8
0
  6
Continuous
 62
     7
370
    25
100
AcDbLine
 10
433.0684475861
 20
226.5314365546
 30
0.0
 11
432.0684475861
 21
226.5314365546
 31
0.0
  0
LINE
  5
C1
330
1F
100
AcDbEntity
  8
0
  6
Continuous
 62
     7
370
    25
100
AcDbLine
 10
757.0684475861
 20
226.5314365546
 30
0.0
 11
446.9823394963
 21
226.5314365546
 31
0.0
  0
LINE
  5
C2
330
1F
100
AcDbEntity
  8
0
  6
Continuous
 62
     7
370
    25
100
AcDbLine
 10
772.0684475861
 20
226.5314365546
 30
0.0
 11
770.9823394963
 21
226.5314365546
 31
0.0
  0
LINE
  5
C3
330
1F
100
AcDbEntity
  8
0
  6
Continuous
 62
     7
370
    25
100
AcDbLine
 10
447.0684475861
 20
226.52626625
 30
0.0
 11
447.0684475861
 21
238.5314365546
 31
0.0
  0
LINE
  5
C4
330
1F
100
AcDbEntity
  8
0
  6
Continuous
 62
     7
370
    25
100
AcDbLine
 10
433.0684475861
 20
238.5314365546
 30
0.0
 11
433.0684475861
 21
226.5314365546
 31
0.0
  0
LINE
  5
C5
330
1F
100
AcDbEntity
  8
0
  6
Continuous
 62
     7
370
    25
100
AcDbLine
 10
771.0684475861
 20
226.52626625
 30
0.0
 11
771.0684475861
 21
238.5314365546
 31
0.0
  0
LINE
  5
C6
330
1F
100
AcDbEntity
  8
0
  6
Continuous
 62
     7
370
    25
100
AcDbLine
 10
757.0684475861
 20
238.5314365546
 30
0.0
 11
757.0684475861
 21
226.5314365546
 31
0.0
  0
LINE
  5
C7
330
1F
100
AcDbEntity
  8
0
  6
Continuous
 62
     7
370
    25
100
AcDbLine
 10
772.0684475861
 20
226.5314365546
 30
0.0
 11
772.0684475861
 21
-3.4685634454
 31
0.0
  0
ARC
  5
C8
330
1F
100
AcDbEntity
  8
0
  6
Continuous
 62
     7
370
    25
100
AcDbCircle
 10
440.0682434128
 20
341.4124001106
 30
0.0
 40
115.0940177818843
100
AcDbArc
 50
266.5132296156
 51
273.4440294262
  0
ARC
  5
C9
330
1F
100
AcDbEntity
  8
0
  6
Continuous
 62
     7
370
    25
100
AcDbCircle
 10
764.0682434128
 20
341.4124001106
 30
0.0
 40
115.0940177818693
100
AcDbArc
 50
266.5132296156
 51
273.4440294262
  0
LINE
  5
CA
330
1F
100
AcDbEntity
  8
0
  6
Continuous
 62
     7
370
    25
100
AcDbLine
 10
432.0684475861
 20
226.5314365546
 30
0.0
 11
432.0684475861
 21
-3.4685634454
 31
0.0
  0
LINE
  5
CB
330
1F
100
AcDbEntity
  8
0
  6
Continuous
 62
     7
370
    25
100
AcDbLine
 10
447.0684475861
 20
238.5314365546
 30
0.0
 11
433.0684475861
 21
238.5314365546
 31
0.0
  0
LINE
  5
CC
330
1F
100
AcDbEntity
  8
0
  6
Continuous
 62
     7
370
    25
100
AcDbLine
 10
771.0684475861
 20
238.5314365546
 30
0.0
 11
757.0684475861
 21
238.5314365546
 31
0.0
  0
LINE
  5
CD
330
1F
100
AcDbEntity
  8
0
  6
Continuous
 62
     7
370
    25
100
AcDbLine
 10
-0.6704630252
 20
-88.2555327711
 30
0.0
 11
-0.6704630252
 21
-428.2555327711
 31
0.0
  0
LINE
  5
CE
330
1F
100
AcDbEntity
  8
0
  6
Continuous
 62
     7
370
    25
100
AcDbLine
 10
229.3295369748
 20
-168.2712868003
 30
0.0
 11
229.3295369748
 21
-88.2555327711
 31
0.0
  0
LINE
  5
CF
330
1F
100
AcDbEntity
  8
0
  6
Continuous
 62
     7
370
    25
100
AcDbLine
 10
229.3295369748
 20
-428.2555327711
 30
0.0
 11
229.3295369748
 21
-348.2555327711
 31
0.0
  0
LINE
  5
D0
330
1F
100
AcDbEntity
  8
0
  6
Continuous
 62
     7
370
    25
100
AcDbLine
 10
229.3295369748
 20
-348.2555327711
 30
0.0
 11
344.3295369748
 21
-348.2555327711
 31
0.0
  0
LINE
  5
D1
330
1F
100
AcDbEntity
  8
0
  6
Continuous
 62
     7
370
    25
100
AcDbLine
 10
344.3295369748
 20
-168.2555327711
 30
0.0
 11
229.3172167834
 21
-168.2555327711
 31
0.0
  0
CIRCLE
  5
D2
330
1F
100
AcDbEntity
  8
0
  6
Continuous
 62
     7
370
    25
100
AcDbCircle
 10
114.3295369748
 20
-96.2555327711
 30
0.0
 40
5.000000000000014
  0
CIRCLE
  5
D3
330
1F
100
AcDbEntity
  8
0
  6
Continuous
 62
     7
370
    25
100
AcDbCircle
 10
114.3295369748
 20
-96.2555327711
 30
0.0
 40
7.000000000000014
  0
CIRCLE
  5
D4
330
1F
100
AcDbEntity
  8
0
  6
Continuous
 62
     7
370
    25
100
AcDbCircle
 10
114.3295369748
 20
-420.2555327711
 30
0.0
 40
5.0
  0
CIRCLE
  5
D5
330
1F
100
AcDbEntity
  8
0
  6
Continuous
 62
     7
370
    25
100
AcDbCircle
 10
114.3295369748
 20
-420.2555327711
 30
0.0
 40
7.0
  0
SPLINE
  5
D6
330
1F
100
AcDbEntity
  8
0
  6
Continuous
 62
     7
370
    25
100
AcDbSpline
210
0.0
220
0.0
230
1.0
 70
     8
 71
     3
 72
    51
 73
    47
 74
     0
 42
0.00000001
 43
0.00000001
 40
0.0
 40
0.0
 40
0.0
 40
0.0
 40
0.001614091414061
 40
0.0232262061729793
 40
0.0451991284526219
 40
0.0650803198609286
 40
0.0850898587990781
 40
0.1053492775079391
 40
0.1257265238907108
 40
0.1471848480255876
 40
0.1688711387042721
 40
0.1906659429489793
 40
0.2126735588775525
 40
0.2383375415094522
 40
0.2642716997169028
 40
0.2903369768263903
 40
0.316668464318859
 40
0.341151080749513
 40
0.3658985425980281
 40
0.3907922643411768
 40
0.4160179489833397
 40
0.4330412083638244
 40
0.4501565456147955
 40
0.4674911660894346
 40
0.4849573685806963
 40
0.5020044886003093
 40
0.5191932621789646
 40
0.5366676918202282
 40
0.5542783945762352
 40
0.5753248018136271
 40
0.5965424137860853
 40
0.6179755803082471
 40
0.6396768470723161
 40
0.6694941942535033
 40
0.6995299349859693
 40
0.7302016274450164
 40
0.7610867829986516
 40
0.7911191771792577
 40
0.8213863166869758
 40
0.8524923095636124
 40
0.8839416768918029
 40
0.9047293084242862
 40
0.9256460035666825
 40
0.9468486884583049
 40
0.9682094907647912
 40
1.0
 40
1.0
 40
1.0
 40
1.0
 10
229.3172124691485
 20
-168.2712868003106
 30
0.0
 10
229.3212642094543
 20
-168.2661075432872
 30
0.0
 10
229.3795673234422
 20
-168.191579861398
 30
0.0
 10
229.15479979773
 20
-168.4787474988607
 30
0.0
 10
228.628247619862
 20
-169.1527797325442
 30
0.0
 10
227.7595532631697
 20
-170.2692990755136
 30
0.0
 10
226.644983530507
 20
-171.7100934115099
 30
0.0
 10
225.254626066756
 20
-173.5211076443754
 30
0.0
 10
223.5829584345502
 20
-175.7199638855374
 30
0.0
 10
221.638113779566
 20
-178.3099650403441
 30
0.0
 10
219.4344547432605
 20
-181.2907716767153
 30
0.0
 10
217.0261872836187
 20
-184.6107334213531
 30
0.0
 10
214.3085176512854
 20
-188.4440764606357
 30
0.0
 10
211.2816517726511
 20
-192.8423234280787
 30
0.0
 10
207.9755884933396
 20
-197.84182732873
 30
0.0
 10
204.58583865836
 20
-203.2310921469779
 30
0.0
 10
201.2672678294387
 20
-208.8530057078562
 30
0.0
 10
198.0822776945843
 20
-214.6914674471855
 30
0.0
 10
195.101042232878
 20
-220.7179085022442
 30
0.0
 10
192.3221828079928
 20
-227.1116126333698
 30
0.0
 10
190.1341817292717
 20
-233.1241022069973
 30
0.0
 10
188.5103920336533
 20
-238.6342709574783
 30
0.0
 10
187.3616280111367
 20
-243.5376336887243
 30
0.0
 10
186.5085527211396
 20
-248.5904061392823
 30
0.0
 10
186.0012421498482
 20
-253.7144269082135
 30
0.0
 10
185.8601738272341
 20
-258.8617294819758
 30
0.0
 10
186.0877909413071
 20
-264.004884720084
 30
0.0
 10
186.6840735400549
 20
-269.1558065507347
 30
0.0
 10
187.6920236693059
 20
-274.5929151071009
 30
0.0
 10
189.1496407800055
 20
-280.2466971790846
 30
0.0
 10
191.0660021511414
 20
-286.0580736158516
 30
0.0
 10
193.2950419336022
 20
-291.707250614631
 30
0.0
 10
196.0743034783844
 20
-297.8509352623867
 30
0.0
 10
199.4211047693297
 20
-304.3743160747875
 30
0.0
 10
203.3001023937467
 20
-311.1720710290939
 30
0.0
 10
207.2730018583148
 20
-317.5947177642325
 30
0.0
 10
211.1872240577742
 20
-323.5414403039885
 30
0.0
 10
214.9300040390974
 20
-328.9652198318684
 30
0.0
 10
218.4400189836439
 20
-333.8689111956302
 30
0.0
 10
221.662202510207
 20
-338.241488828425
 30
0.0
 10
224.1557467806343
 20
-341.5493839894081
 30
0.0
 10
225.9863139641505
 20
-343.9451650663829
 30
0.0
 10
227.2913399720285
 20
-345.6378156378281
 30
0.0
 10
228.2988073951367
 20
-346.9356301639208
 30
0.0
 10
229.1325487221001
 20
-348.0041252501783
 30
0.0
 10
229.2558117260363
 20
-348.1614404495098
 30
0.0
 10
229.3295369747899
 20
-348.255532771075
 30
0.0
  0
LINE
  5
D7
330
1F
100
AcDbEntity
  8
0
  6
Continuous
 62
     7
370
    25
100
AcDbLine
 10
229.3295369748
 20
-428.2555327711
 30
0.0
 11
-0.6704630252
 21
-428.2555327711
 31
0.0
  0
LINE
  5
D8
330
1F
100
AcDbEntity
  8
0
  6
Continuous
 62
     7
370
    25
100
AcDbLine
 10
229.3295369748
 20
-88.2555327711
 30
0.0
 11
-0.6704630252
 21
-88.2555327711
 31
0.0
  0
LINE
  5
D9
330
1F
100
AcDbEntity
  8
0
  6
Continuous
 62
     7
370
    25
100
AcDbLine
 10
344.3295369748
 20
-168.2555327711
 30
0.0
 11
344.3295369748
 21
-348.2555327711
 31
0.0
  0
INSERT
  5
E5
330
1F
100
AcDbEntity
  8
FORMAT
 62
     7
100
AcDbBlockReference
  2
SW_CENTERMARKSYMBOL_2
 10
114.3295369748
 20
-96.2555327711
 30
0.0
  0
INSERT
  5
F1
330
1F
100
AcDbEntity
  8
FORMAT
 62
     7
100
AcDbBlockReference
  2
SW_CENTERMARKSYMBOL_3
 10
114.3295369748
 20
-420.2555327711
 30
0.0
  0
LINE
  5
F2
330
1F
100
AcDbEntity
  8
0
  6
Continuous
 62
     7
370
    25
100
AcDbLine
 10
759.566653677
 20
-323.6424040009
 30
0.0
 11
854.4745210418
 21
-268.8532583909
 31
0.0
  0
LINE
  5
F3
330
1F
100
AcDbEntity
  8
0
  6
Continuous
 62
     7
370
    25
100
AcDbLine
 10
764.4818351046
 20
-112.9644631624
 30
0.0
 11
669.5659842003
 21
-167.7582175716
 31
0.0
  0
LINE
  5
F4
330
1F
100
AcDbEntity
  8
0
  6
Continuous
 62
     7
370
    25
100
AcDbLine
 10
671.8456502495
 20
-166.4421943737
 30
0.0
 11
584.1307927252
 21
-115.8054849576
 31
0.0
  0
LINE
  5
F5
330
1F
100
AcDbEntity
  8
0
  6
Continuous
 62
     7
370
    25
100
AcDbLine
 10
469.140138472
 20
-314.9967233051
 30
0.0
 11
709.5564440755
 21
-453.786102315
 31
0.0
  0
LINE
  5
F6
330
1F
100
AcDbEntity
  8
0
  6
Continuous
 62
     7
370
    25
100
AcDbLine
 10
539.2923198481
 20
-115.3366862499
 30
0.0
 11
539.2923198481
 21
-114.9660534692
 31
0.0
  0
LINE
  5
F7
330
1F
100
AcDbEntity
  8
0
  6
Continuous
 62
     7
370
    25
100
AcDbLine
 10
525.2923198481
 20
-114.9660534692
 30
0.0
 11
525.2923198481
 21
-122.2871025034
 31
0.0
  0
LWPOLYLINE
  5
F8
330
1F
100
AcDbEntity
  8
0
  6
Continuous
 62
     7
370
    25
100
AcDbPolyline
 90
       92
 70
   128
 43
0.0
 10
861.5212371686
 20
-220.9526792917
 10
861.3972327301
 20
-216.7349043924
 10
861.0258103524
 20
-212.3940566342
 10
860.4087400323
 20
-207.9508221333
 10
859.5489623907
 20
-203.4263749258
 10
858.4505746598
 20
-198.8422760628
 10
857.1188111572
 20
-194.2203708632
 10
855.5600183426
 20
-189.58268481
 10
853.7816245735
 20
-184.9513185891
 10
851.7921047062
 20
-180.3483427699
 10
849.6009397088
 20
-175.7956926282
 10
847.2185714804
 20
-171.3150636152
 10
844.6563530906
 20
-166.9278079686
 10
841.9264946767
 20
-162.6548329596
 10
839.0420052573
 20
-158.51650126
 10
836.0166307381
 20
-154.5325339048
 10
832.8647884064
 20
-150.7219163129
 10
829.6014982263
 20
-147.1028078124
 10
826.2423112616
 20
-143.6924551034
 10
822.8032355678
 20
-140.5071100697
 10
819.3006599069
 20
-137.561952331
 10
815.7512756469
 20
-134.871016905
 10
812.1719972202
 20
-132.4471273246
 10
808.5798815186
 20
-130.3018345274
 10
804.9920466091
 20
-128.4453618106
 10
801.425590159
 20
-126.8865561121
 10
797.8975079574
 20
-125.6328458509
 10
794.4246129227
 20
-124.6902055273
 10
791.0234549814
 20
-124.0631272519
 10
787.7102421998
 20
-123.754599338
 10
784.5007635457
 20
-123.7660920618
 10
781.4103136465
 20
-124.0975506552
 10
778.4536199033
 20
-124.747395567
 10
775.6447723083
 20
-125.7125299902
 10
772.9971562994
 20
-126.98835462
 10
770.5233889727
 20
-128.5687895708
 10
768.2352589559
 20
-130.4463033504
 10
766.1436702306
 20
-132.6119487507
 10
764.2585901696
 20
-135.055405485
 10
762.5890020379
 20
-137.7650293693
 10
761.1428621832
 20
-140.7279078118
 10
759.9270621205
 20
-143.9299213475
 10
758.9473956908
 20
-147.3558109237
 10
758.2085314507
 20
-150.9892506164
 10
757.7139904248
 20
-154.8129254307
 10
757.4661293264
 20
-158.808613815
 10
757.4661293264
 20
-162.9572744945
 10
757.7139904248
 20
-167.2391372116
 10
758.2085314507
 20
-171.6337969407
 10
758.9473956908
 20
-176.1203111268
 10
759.9270621205
 20
-180.6772994866
 10
761.1428621832
 20
-185.2830458954
 10
762.5890020379
 20
-189.9156018741
 10
764.2585901696
 20
-194.5528911837
 10
766.1436702306
 20
-199.1728150291
 10
768.2352589559
 20
-203.753357369
 10
770.5233889727
 20
-208.2726898333
 10
772.9971562994
 20
-212.7092757447
 10
775.6447723083
 20
-217.0419727509
 10
778.4536199033
 20
-221.2501335776
 10
781.4103136465
 20
-225.3137044221
 10
784.5007635457
 20
-229.2133205187
 10
787.7102421998
 20
-232.9303984209
 10
791.0234549814
 20
-236.4472245598
 10
794.4246129227
 20
-239.7470396571
 10
797.8975079574
 20
-242.8141185913
 10
801.425590159
 20
-245.6338453345
 10
804.9920466091
 20
-248.1927826046
 10
808.5798815186
 20
-250.4787359003
 10
812.1719972202
 20
-252.480811613
 10
815.7512756469
 20
-254.1894689403
 10
819.3006599069
 20
-255.5965653519
 10
822.8032355678
 20
-256.6953953925
 10
826.2423112616
 20
-257.4807226367
 10
829.6014982263
 20
-257.9488046424
 10
832.8647884065
 20
-258.0974107858
 10
836.0166307381
 20
-257.9258328909
 10
839.0420052573
 20
-257.4348886046
 10
841.9264946767
 20
-256.6269174998
 10
844.6563530906
 20
-255.5057699269
 10
847.2185714804
 20
-254.0767886647
 10
849.6009397088
 20
-252.3467834595
 10
851.7921047062
 20
-250.3239985741
 10
853.7816245735
 20
-248.0180734995
 10
855.5600183426
 20
-245.439997019
 10
857.1188111572
 20
-242.6020548409
 10
858.4505746598
 20
-239.5177710522
 10
859.5489623907
 20
-236.2018436696
 10
860.4087400323
 20
-232.6700745972
 10
861.0258103524
 20
-228.939294323
 10
861.3972327301
 20
-225.027281714
 10
861.5212371686
 20
-220.9526792917
  0
LWPOLYLINE
  5
F9
330
1F
100
AcDbEntity
  8
0
  6
Continuous
 62
     7
370
    25
100
AcDbPolyline
 90
      101
 70
   128
 43
0.0
 10
873.11778838
 20
-227.6472258087
 10
872.9922101462
 20
-222.9603390758
 10
872.6159710445
 20
-218.146959801
 10
871.9905559189
 20
-213.2260841933
 10
871.1184329972
 20
-208.2171327005
 10
870.00304415
 20
-203.1398733658
 10
868.6487913076
 20
-198.0143438122
 10
867.0610190872
 20
-192.8607721633
 10
865.2459937005
 20
-187.6994972119
 10
863.2108782233
 20
-182.5508881523
 10
860.9637043268
 20
-177.4352641922
 10
858.5133405797
 20
-172.3728143623
 10
855.8694574482
 20
-167.3835178394
 10
853.0424891312
 20
-162.4870650972
 10
850.043592381
 20
-157.702780198
 10
846.8846024732
 20
-153.0495445284
 10
843.5779864976
 20
-148.5457222837
 10
840.1367941569
 20
-144.2090879928
 10
836.5746062651
 20
-140.05675637
 10
832.9054811504
 20
-136.1051147711
 10
829.1438991734
 20
-132.3697585203
 10
825.3047055796
 20
-128.8654293621
 10
821.4030519122
 20
-125.6059572827
 10
817.4543362157
 20
-122.6042059294
 10
813.474142267
 20
-119.8720218434
 10
809.4781780732
 20
-117.420187707
 10
805.4822138794
 20
-115.2583797893
 10
801.5020199307
 20
-113.3951297588
 10
797.5533042342
 20
-111.8377910119
 10
793.6516505668
 20
-110.5925096532
 10
789.812456973
 20
-109.6642002394
 10
786.050874996
 20
-109.0565263835
 10
782.3817498813
 20
-108.7718862968
 10
778.8195619895
 20
-108.8114033234
 10
775.3783696488
 20
-109.1749215079
 10
772.0717536733
 20
-109.86100621
 10
768.9127637654
 20
-110.8669497669
 10
765.9138670153
 20
-112.1887821788
 10
763.0868986982
 20
-113.8212867772
 10
760.4430155668
 20
-115.7580208121
 10
757.9926518196
 20
-117.9913408793
 10
755.7454779231
 20
-120.5124330846
 10
753.710362446
 20
-123.311347829
 10
751.8953370592
 20
-126.3770390746
 10
750.3075648389
 20
-129.6974079387
 10
748.9533119965
 20
-133.2593504423
 10
747.8379231493
 20
-137.0488092257
 10
746.9658002275
 20
-141.0508290261
 10
746.3403851019
 20
-145.2496157
 10
745.9641460003
 20
-149.6285985544
 10
745.8385677664
 20
-154.1704957446
 10
745.9641460003
 20
-158.8573824775
 10
746.3403851019
 20
-163.6707617523
 10
746.9658002275
 20
-168.5916373601
 10
747.8379231493
 20
-173.6005888529
 10
748.9533119965
 20
-178.6778481875
 10
750.3075648389
 20
-183.8033777411
 10
751.8953370592
 20
-188.95694939
 10
753.710362446
 20
-194.1182243414
 10
755.7454779231
 20
-199.2668334011
 10
757.9926518196
 20
-204.3824573611
 10
760.4430155668
 20
-209.444907191
 10
763.0868986983
 20
-214.434203714
 10
765.9138670153
 20
-219.3306564561
 10
768.9127637654
 20
-224.1149413554
 10
772.0717536733
 20
-228.768177025
 10
775.3783696488
 20
-233.2719992696
 10
778.8195619895
 20
-237.6086335606
 10
782.3817498813
 20
-241.7609651834
 10
786.050874996
 20
-245.7126067822
 10
789.812456973
 20
-249.4479630331
 10
793.6516505668
 20
-252.9522921913
 10
797.5533042342
 20
-256.2117642706
 10
801.5020199307
 20
-259.2135156239
 10
805.4822138794
 20
-261.94569971
 10
809.4781780732
 20
-264.3975338464
 10
813.474142267
 20
-266.559341764
 10
817.4543362157
 20
-268.4225917946
 10
821.4030519122
 20
-269.9799305415
 10
825.3047055796
 20
-271.2252119001
 10
829.1438991734
 20
-272.153521314
 10
832.9054811504
 20
-272.7611951698
 10
836.5746062651
 20
-273.0458352566
 10
840.1367941569
 20
-273.0063182299
 10
843.5779864976
 20
-272.6428000454
 10
846.8846024732
 20
-271.9567153433
 10
850.043592381
 20
-270.9507717865
 10
853.0424891312
 20
-269.6289393745
 10
855.8694574482
 20
-267.9964347762
 10
858.5133405797
 20
-266.0597007412
 10
860.9637043268
 20
-263.826380674
 10
863.2108782233
 20
-261.3052884687
 10
865.2459937005
 20
-258.5063737243
 10
867.0610190872
 20
-255.4406824787
 10
868.6487913076
 20
-252.1203136146
 10
870.00304415
 20
-248.558371111
 10
871.1184329972
 20
-244.7689123277
 10
871.9905559189
 20
-240.7668925272
 10
872.6159710445
 20
-236.5681058534
 10
872.9922101462
 20
-232.1891229989
 10
873.11778838
 20
-227.6472258087
  0
SPLINE
  5
FA
330
1F
100
AcDbEntity
  8
0
  6
Continuous
 62
     7
370
    25
100
AcDbSpline
210
0.0
220
0.0
230
1.0
 70
     8
 71
     3
 72
    40
 73
    36
 74
     0
 42
0.00000001
 43
0.00000001
 40
0.0
 40
0.0
 40
0.0
 40
0.0
 40
0.0286008619189427
 40
0.0574374944803656
 40
0.0866298540355257
 40
0.1162985260858938
 40
0.1448634081034454
 40
0.1736128406221822
 40
0.2026227954607308
 40
0.2319718798253653
 40
0.2700079784575469
 40
0.3086095025851744
 40
0.3474792508485967
 40
0.3868851888265795
 40
0.4254416149214327
 40
0.4645368252006915
 40
0.5039247911547632
 40
0.5439849179997097
 40
0.5668528243856457
 40
0.5898388744064152
 40
0.6130378154202369
 40
0.6364076015647578
 40
0.6593285488866649
 40
0.6824435958400462
 40
0.7058562987243479
 40
0.7294608627918393
 40
0.7566949507028123
 40
0.7841517651637809
 40
0.8118415811458439
 40
0.8397821176389895
 40
0.8788349877370639
 40
0.9181776784639996
 40
0.9583465751885315
 40
0.9987855260308128
 40
1.0
 40
1.0
 40
1.0
 40
1.0
 10
664.5212879299812
 20
-201.113962174453
 30
0.0
 10
664.5280749520235
 20
-202.8949265115772
 30
0.0
 10
664.5417049447908
 20
-206.4715365302965
 30
0.0
 10
664.652921756833
 20
-212.2484002489371
 30
0.0
 10
664.8339928430605
 20
-218.317757386686
 30
0.0
 10
665.0913258884046
 20
-224.5684363791729
 30
0.0
 10
665.4227752230961
 20
-230.9219584802573
 30
0.0
 10
665.8281633547845
 20
-237.3142517935242
 30
0.0
 10
666.3182735963491
 20
-243.8089302894799
 30
0.0
 10
666.9566224727353
 20
-251.0022289576384
 30
0.0
 10
667.7897086417653
 20
-258.8731201876252
 30
0.0
 10
668.8801116934769
 20
-267.3357734655113
 30
0.0
 10
670.1990208600662
 20
-275.7252317301246
 30
0.0
 10
671.774819957903
 20
-283.8853852030327
 30
0.0
 10
673.6641721255854
 20
-291.7852830127674
 30
0.0
 10
675.9316363398095
 20
-299.3556366592234
 30
0.0
 10
678.7073893807609
 20
-306.6165358437079
 30
0.0
 10
681.6235715292947
 20
-312.4467513484173
 30
0.0
 10
684.4914589039045
 20
-316.968204303384
 30
0.0
 10
687.0665235436888
 20
-320.3515488802079
 30
0.0
 10
689.9525529153161
 20
-323.4669108031789
 30
0.0
 10
693.1393667613928
 20
-326.2449311145818
 30
0.0
 10
696.6181475115848
 20
-328.6508606272321
 30
0.0
 10
700.3725927225956
 20
-330.6643069616666
 30
0.0
 10
704.4072273536277
 20
-332.2807169413326
 30
0.0
 10
708.8895494326414
 20
-333.5462680884067
 30
0.0
 10
713.796628140459
 20
-334.3889015662799
 30
0.0
 10
719.0883827202948
 20
-334.7547736176478
 30
0.0
 10
724.4909029444156
 20
-334.6380572677896
 30
0.0
 10
730.6608948421804
 20
-333.9975633581087
 30
0.0
 10
737.5377637450985
 20
-332.6467490151513
 30
0.0
 10
745.0518124691273
 20
-330.429529065206
 30
0.0
 10
752.3448132581366
 20
-327.4350985315104
 30
0.0
 10
757.2206007994345
 20
-325.1302197941822
 30
0.0
 10
759.4947269514639
 20
-323.6756045816149
 30
0.0
 10
759.5610328321158
 20
-323.6331928875263
 30
0.0
  0
SPLINE
  5
FB
330
1F
100
AcDbEntity
  8
0
  6
Continuous
 62
     7
370
    25
100
AcDbSpline
210
0.0
220
0.0
230
1.0
 70
     8
 71
     3
 72
    17
 73
    13
 74
     0
 42
0.00000001
 43
0.00000001
 40
0.0
 40
0.0
 40
0.0
 40
0.0
 40
0.0347746231709489
 40
0.1561075013606869
 40
0.2783887663493194
 40
0.4040590549708322
 40
0.5311165993087329
 40
0.6152423473719455
 40
0.6998922568652802
 40
0.7852651516848479
 40
0.8715642195747347
 40
1.0
 40
1.0
 40
1.0
 40
1.0
 10
669.6039630029975
 20
-167.8258411611155
 30
0.0
 10
669.4657793046831
 20
-167.8792376806242
 30
0.0
 10
668.8454559221238
 20
-168.1189411333654
 30
0.0
 10
667.9921048079931
 20
-169.2701104997439
 30
0.0
 10
666.9906437037757
 20
-171.3633088006298
 30
0.0
 10
666.1816268987129
 20
-174.3884537966318
 30
0.0
 10
665.6044216837964
 20
-177.9003262742407
 30
0.0
 10
665.2046379159897
 20
-181.593709619231
 30
0.0
 10
664.9306758501339
 20
-185.1805019343689
 30
0.0
 10
664.7256095596211
 20
-189.2212075050149
 30
0.0
 10
664.559766484183
 20
-194.3912618023792
 30
0.0
 10
664.5356889967528
 20
-198.5979098187439
 30
0.0
 10
664.5212879299812
 20
-201.113962174453
 30
0.0
  0
LWPOLYLINE
  5
FC
330
1F
100
AcDbEntity
  8
0
  6
Continuous
 62
     7
370
    25
100
AcDbPolyline
 90
      101
 70
   128
 43
0.0
 10
590.2750759054
 20
-178.6627390993
 10
590.1494976715
 20
-174.1208419091
 10
589.7732585699
 20
-169.7418590546
 10
589.1478434443
 20
-165.5430723808
 10
588.2757205225
 20
-161.5410525803
 10
587.1603316754
 20
-157.751593797
 10
585.8060788329
 20
-154.1896512934
 10
584.2183066126
 20
-150.8692824293
 10
582.4032812258
 20
-147.8035911837
 10
580.3681657487
 20
-145.0046764393
 10
578.1209918522
 20
-142.483584234
 10
575.6706281051
 20
-140.2502641668
 10
573.0267449736
 20
-138.3135301318
 10
570.1997766565
 20
-136.6810255335
 10
567.2008799064
 20
-135.3591931216
 10
564.0418899986
 20
-134.3532495647
 10
560.735274023
 20
-133.6671648626
 10
557.2940816823
 20
-133.3036466781
 10
553.7318937905
 20
-133.2641296514
 10
550.0627686758
 20
-133.5487697382
 10
546.3011866988
 20
-134.1564435941
 10
542.461993105
 20
-135.0847530079
 10
538.5603394376
 20
-136.3300343666
 10
534.6116237411
 20
-137.8873731135
 10
530.6314297924
 20
-139.750623144
 10
526.6354655986
 20
-141.9124310616
 10
522.6395014048
 20
-144.3642651981
 10
518.6593074561
 20
-147.0964492841
 10
514.7105917596
 20
-150.0982006374
 10
510.8089380922
 20
-153.3576727168
 10
506.9697444984
 20
-156.862001875
 10
503.2081625214
 20
-160.5973581258
 10
499.5390374067
 20
-164.5489997246
 10
495.9768495149
 20
-168.7013313475
 10
492.5356571742
 20
-173.0379656384
 10
489.2290411986
 20
-177.541787883
 10
486.0700512908
 20
-182.1950235527
 10
483.0711545407
 20
-186.9793084519
 10
480.2441862236
 20
-191.875761194
 10
477.6003030921
 20
-196.865057717
 10
475.149939345
 20
-201.9275075469
 10
472.9027654485
 20
-207.043131507
 10
470.8676499714
 20
-212.1917405666
 10
469.0526245846
 20
-217.353015518
 10
467.4648523643
 20
-222.5065871669
 10
466.1105995218
 20
-227.6321167205
 10
464.9952106747
 20
-232.7093760552
 10
464.1230877529
 20
-237.718327548
 10
463.4976726273
 20
-242.6392031557
 10
463.1214335257
 20
-247.4525824305
 10
462.9958552918
 20
-252.1394691634
 10
463.1214335257
 20
-256.6813663536
 10
463.4976726273
 20
-261.0603492081
 10
464.1230877529
 20
-265.2591358819
 10
464.9952106747
 20
-269.2611556824
 10
466.1105995218
 20
-273.0506144657
 10
467.4648523643
 20
-276.6125569693
 10
469.0526245846
 20
-279.9329258334
 10
470.8676499714
 20
-282.998617079
 10
472.9027654485
 20
-285.7975318234
 10
475.149939345
 20
-288.3186240287
 10
477.6003030921
 20
-290.5519440959
 10
480.2441862236
 20
-292.4886781309
 10
483.0711545407
 20
-294.1211827292
 10
486.0700512908
 20
-295.4430151411
 10
489.2290411986
 20
-296.448958698
 10
492.5356571742
 20
-297.1350434001
 10
495.9768495149
 20
-297.4985615846
 10
499.5390374067
 20
-297.5380786113
 10
503.2081625214
 20
-297.2534385245
 10
506.9697444984
 20
-296.6457646686
 10
510.8089380922
 20
-295.7174552548
 10
514.7105917596
 20
-294.4721738961
 10
518.6593074561
 20
-292.9148351492
 10
522.6395014048
 20
-291.0515851187
 10
526.6354655986
 20
-288.8897772011
 10
530.6314297924
 20
-286.4379430646
 10
534.6116237411
 20
-283.7057589786
 10
538.5603394376
 20
-280.7040076253
 10
542.461993105
 20
-277.4445355459
 10
546.3011866988
 20
-273.9402063877
 10
550.0627686758
 20
-270.2048501369
 10
553.7318937905
 20
-266.2532085381
 10
557.2940816823
 20
-262.1008769152
 10
560.735274023
 20
-257.7642426243
 10
564.0418899986
 20
-253.2604203797
 10
567.2008799064
 20
-248.60718471
 10
570.1997766565
 20
-243.8228998108
 10
573.0267449736
 20
-238.9264470687
 10
575.6706281051
 20
-233.9371505457
 10
578.1209918522
 20
-228.8747007158
 10
580.3681657487
 20
-223.7590767557
 10
582.4032812258
 20
-218.6104676961
 10
584.2183066126
 20
-213.4491927447
 10
585.8060788329
 20
-208.2956210958
 10
587.1603316754
 20
-203.1700915422
 10
588.2757205225
 20
-198.0928322075
 10
589.1478434443
 20
-193.0838807147
 10
589.7732585699
 20
-188.163005107
 10
590.1494976715
 20
-183.3496258322
 10
590.2750759054
 20
-178.6627390993
  0
LWPOLYLINE
  5
FD
330
1F
100
AcDbEntity
  8
0
  6
Continuous
 62
     7
370
    25
100
AcDbPolyline
 90
      114
 70
   128
 43
0.0
 10
607.9527454351
 20
-168.4576377015
 10
607.8270719091
 20
-163.311595403
 10
607.450439781
 20
-158.3265587907
 10
606.824013199
 20
-153.5179363274
 10
605.9497284117
 20
-148.9005911893
 10
604.8302877835
 20
-144.4887953257
 10
603.469151441
 20
-140.2961853448
 10
601.8705265787
 20
-136.3357203638
 10
600.0393544545
 20
-132.619641953
 10
597.9812951165
 20
-129.1594362978
 10
595.702709908
 20
-125.9657986955
 10
593.2106418055
 20
-123.048600497
 10
590.5127936486
 20
-120.4168585947
 10
587.6175043314
 20
-118.0787075521
 10
584.5337230272
 20
-116.0413744599
 10
581.2709815273
 20
-114.3111565981
 10
577.8393647786
 20
-112.8934019709
 10
574.249479712
 20
-111.7924927766
 10
570.5124224565
 20
-111.0118318624
 10
566.6397440417
 20
-110.5538322065
 10
562.6434146948
 20
-110.4199094596
 10
558.5357868409
 20
-110.6104775692
 10
554.329556922
 20
-111.1249475002
 10
550.037726154
 20
-111.9617290554
 10
545.6735603398
 20
-113.1182357912
 10
541.2505488657
 20
-114.5908930114
 10
536.7823630068
 20
-116.375148817
 10
532.2828136695
 20
-118.4654881756
 10
527.765808703
 20
-120.8554499679
 10
523.2453099107
 20
-123.537646959
 10
518.7352898953
 20
-126.5037886318
 10
514.2496888704
 20
-129.7447068122
 10
509.8023715714
 20
-133.250384008
 10
505.4070844015
 20
-137.0099843719
 10
501.0774129413
 20
-141.0118871945
 10
496.8267399571
 20
-145.2437228236
 10
492.6682040357
 20
-149.6924108978
 10
488.6146589732
 20
-154.3442007771
 10
484.678634045
 20
-159.1847140457
 10
480.8722952788
 20
-164.1989889544
 10
477.2074078494
 20
-169.3715266668
 10
473.6952997139
 20
-174.6863391653
 10
470.3468265973
 20
-180.1269986691
 10
467.1723384381
 20
-185.6766884114
 10
464.1816473972
 20
-191.3182546192
 10
461.3839975293
 20
-197.0342595347
 10
458.7880362098
 20
-202.8070353144
 10
456.4017874064
 20
-208.618738639
 10
454.2326268773
 20
-214.4514058666
 10
452.2872593735
 20
-220.2870085572
 10
450.5716979144
 20
-226.1075091972
 10
449.0912452022
 20
-231.8949169527
 10
447.8504772313
 20
-237.631343278
 10
446.8532291445
 20
-243.299057208
 10
446.1025833785
 20
-248.8805401639
 10
445.6008601362
 20
-254.3585401016
 10
445.3496102155
 20
-259.7161248372
 10
445.3496102155
 20
-264.9367343835
 10
445.6008601362
 20
-270.0042321354
 10
446.1025833785
 20
-274.9029547479
 10
446.8532291445
 20
-279.61776055
 10
447.8504772313
 20
-284.1340763472
 10
449.0912452022
 20
-288.4379424662
 10
450.5716979144
 20
-292.5160559035
 10
452.2872593735
 20
-296.3558114442
 10
454.2326268773
 20
-299.9453406239
 10
456.4017874064
 20
-303.2735484136
 10
458.7880362098
 20
-306.3301475138
 10
461.3839975293
 20
-309.1056901518
 10
464.1816473972
 20
-311.5915972845
 10
467.1723384381
 20
-313.7801851152
 10
470.3468265973
 20
-315.6646888445
 10
473.6952997139
 20
-317.2392835794
 10
477.2074078494
 20
-318.4991023377
 10
480.8722952788
 20
-319.4402510918
 10
484.678634045
 20
-320.0598208049
 10
488.6146589732
 20
-320.3558964225
 10
492.6682040357
 20
-320.3275627919
 10
496.8267399571
 20
-319.9749074906
 10
501.0774129413
 20
-319.299020556
 10
505.4070844015
 20
-318.3019911159
 10
509.8023715714
 20
-316.9869009312
 10
514.2496888704
 20
-315.3578148702
 10
518.7352898953
 20
-313.4197683446
 10
523.2453099107
 20
-311.1787517451
 10
527.765808703
 20
-308.6416919256
 10
532.2828136695
 20
-305.8164307927
 10
536.7823630068
 20
-302.7117010665
 10
541.2505488657
 20
-299.3370992888
 10
545.6735603398
 20
-295.7030561603
 10
550.037726154
 20
-291.8208042999
 10
554.3295569221
 20
-287.7023435257
 10
558.5357868409
 20
-283.360403764
 10
562.6434146948
 20
-278.8084057018
 10
566.6397440417
 20
-274.060419304
 10
570.5124224565
 20
-269.1311203248
 10
574.249479712
 20
-264.0357449446
 10
577.8393647786
 20
-258.7900426768
 10
581.2709815273
 20
-253.4102276864
 10
584.5337230272
 20
-247.9129286734
 10
587.6175043314
 20
-242.3151374739
 10
590.5127936486
 20
-236.6341565397
 10
593.2106418055
 20
-230.8875454573
 10
595.702709908
 20
-225.0930666723
 10
597.9812951165
 20
-219.2686305865
 10
600.0393544545
 20
-213.4322401981
 10
601.8705265787
 20
-207.6019354552
 10
603.469151441
 20
-201.7957374958
 10
604.8302877835
 20
-196.0315929449
 10
605.9497284117
 20
-190.3273184431
 10
606.824013199
 20
-184.700545576
 10
607.450439781
 20
-179.168666376
 10
607.8270719091
 20
-173.7487795646
 10
607.9527454351
 20
-168.4576377015
  0
ARC
  5
FE
330
1F
100
AcDbEntity
  8
0
  6
Continuous
 62
     7
370
    25
100
AcDbCircle
 10
770.1816664088
 20
-305.3803280346
 30
0.0
 40
78.20966463192843
100
AcDbArc
 50
358.6323488199
 51
22.2753105175
  0
LWPOLYLINE
  5
FF
330
1F
100
AcDbEntity
  8
0
  6
Continuous
 62
     7
370
    25
100
AcDbPolyline
 90
       44
 70
   128
 43
0.0
 10
709.5564440755
 20
-453.786102315
 10
710.7631322007
 20
-454.4540678544
 10
714.1116053173
 20
-456.0286625892
 10
717.6237134528
 20
-457.2884813475
 10
721.2886008822
 20
-458.2296301016
 10
725.0949396485
 20
-458.8491998147
 10
729.0309645766
 20
-459.1452754324
 10
733.0845096391
 20
-459.1169418017
 10
737.2430455606
 20
-458.7642865005
 10
741.4937185447
 20
-458.0883995659
 10
745.8233900049
 20
-457.0913701258
 10
750.2186771749
 20
-455.7762799411
 10
754.6659944738
 20
-454.14719388
 10
759.1515954988
 20
-452.2091473544
 10
763.6616155141
 20
-449.9681307549
 10
768.1821143064
 20
-447.4310709355
 10
772.699119273
 20
-444.6058098026
 10
777.1986686102
 20
-441.5010800764
 10
781.6668544691
 20
-438.1264782987
 10
786.0898659432
 20
-434.4924351701
 10
790.4540317575
 20
-430.6101833098
 10
794.7458625255
 20
-426.4917225356
 10
798.9520924443
 20
-422.1497827739
 10
803.0597202983
 20
-417.5977847116
 10
807.0560496451
 20
-412.8497983139
 10
810.9287280599
 20
-407.9204993346
 10
814.6657853155
 20
-402.8251239544
 10
818.2556703821
 20
-397.5794216866
 10
821.6872871307
 20
-392.1996066963
 10
824.9500286306
 20
-386.7023076833
 10
828.0338099348
 20
-381.1045164838
 10
830.9290992521
 20
-375.4235355496
 10
833.626947409
 20
-369.6769244672
 10
836.1190155115
 20
-363.8824456822
 10
838.3976007199
 20
-358.0580095964
 10
840.4556600579
 20
-352.2216192079
 10
842.2868321821
 20
-346.3913144651
 10
843.8854570444
 20
-340.5851165057
 10
845.2465933869
 20
-334.8209719548
 10
846.3660340152
 20
-329.116697453
 10
847.2403188024
 20
-323.4899245859
 10
847.8667453844
 20
-317.9580453858
 10
848.2433775125
 20
-312.5381585745
 10
848.3690510385
 20
-307.2470167114
  0
ARC
  5
100
330
1F
100
AcDbEntity
  8
0
  6
Continuous
 62
     7
370
    25
100
AcDbCircle
 10
528.7197804908
 20
-115.261054259
 30
0.0
 40
3.440132544473185
100
AcDbArc
 50
113.5991707576
 51
175.0806882848
  0
LWPOLYLINE
  5
101
330
1F
100
AcDbEntity
  8
0
  6
Continuous
 62
     7
370
    25
100
AcDbPolyline
 90
       12
 70
   128
 43
0.0
 10
539.2923198481
 20
-114.9660534692
 10
539.2483053173
 20
-114.5136034554
 10
538.8995031603
 20
-113.631391161
 10
538.2193892427
 20
-112.8161044077
 10
537.2420673164
 20
-112.1086250778
 10
536.0165443837
 20
-111.544429139
 10
534.6042732818
 20
-111.1518077315
 10
533.0760711808
 20
-110.9504485323
 10
531.5085685154
 20
-110.9504485323
 10
529.9803664144
 20
-111.1518077315
 10
528.5680953125
 20
-111.544429139
 10
527.3425723798
 20
-112.1086250778
  0
ENDSEC
  0
SECTION
  2
OBJECTS
  0
DICTIONARY
  5
C
330
0
100
AcDbDictionary
281
     1
  3
ACAD_GROUP
350
D
  3
ACAD_LAYOUT
350
1A
  3
ACAD_MLINESTYLE
350
17
  3
ACAD_PLOTSETTINGS
350
19
  3
ACAD_PLOTSTYLENAME
350
E
  3
ACAD_SCALELIST
350
47
  3
DWGPROPS
350
102
  0
DICTIONARY
  5
D
102
{ACAD_REACTORS
330
C
102
}
330
C
100
AcDbDictionary
281
     1
  0
DICTIONARY
  5
1A
102
{ACAD_REACTORS
330
C
102
}
330
C
100
AcDbDictionary
281
     1
  3
Layout1
350
1E
  3
Layout2
350
26
  3
Model
350
22
  0
DICTIONARY
  5
17
102
{ACAD_REACTORS
330
C
102
}
330
C
100
AcDbDictionary
281
     1
  3
Standard
350
18
  0
DICTIONARY
  5
19
102
{ACAD_REACTORS
330
C
102
}
330
C
100
AcDbDictionary
281
     1
  0
ACDBDICTIONARYWDFLT
  5
E
102
{ACAD_REACTORS
330
C
102
}
330
C
100
AcDbDictionary
281
     1
  3
Normal
350
F
100
AcDbDictionaryWithDefault
340
F
  0
DICTIONARY
  5
47
102
{ACAD_REACTORS
330
C
102
}
330
C
100
AcDbDictionary
281
     1
  3
A0
350
48
  3
A1
350
49
  3
A2
350
4A
  3
A3
350
4B
  3
A4
350
4C
  3
A5
350
4D
  3
A6
350
4E
  3
A7
350
4F
  3
A8
350
50
  3
A9
350
51
  3
B0
350
52
  3
B1
350
53
  3
B2
350
54
  3
B3
350
55
  3
B4
350
56
  3
B5
350
57
  3
B6
350
58
  3
B7
350
59
  3
B8
350
5A
  3
B9
350
5B
  3
C0
350
5C
  3
C1
350
5D
  3
C2
350
5E
  3
C3
350
5F
  3
C4
350
60
  3
C5
350
61
  3
C6
350
62
  3
C7
350
63
  3
C8
350
64
  3
C9
350
65
  3
D0
350
66
  3
D1
350
67
  3
D2
350
68
  0
XRECORD
  5
102
102
{ACAD_REACTORS
330
C
102
}
330
C
100
AcDbXrecord
280
     1
  1
DWGPROPS COOKIE
  2

  3

  4

  6

  7

  8
b.kav
  9

300
=
301
=
302
=
303
=
304
=
305
=
306
=
307
=
308
=
309
=
 40
0.0
 41
2459741.482935752
 42
2459741.482936007
  1

 90
        0
  0
LAYOUT
  5
1E
102
{ACAD_REACTORS
330
1A
102
}
330
1A
100
AcDbPlotSettings
  1

  2
none_device
  4

  6

 40
0.0
 41
0.0
 42
0.0
 43
0.0
 44
0.0
 45
0.0
 46
0.0
 47
0.0
 48
0.0
 49
0.0
140
0.0
141
0.0
142
1.0
143
1.0
 70
   688
 72
     1
 73
     0
 74
     5
  7

 75
    16
147
1.0
148
0.0
149
0.0
100
AcDbLayout
  1
Layout1
 70
     1
 71
     1
 10
0.0
 20
0.0
 11
420.0
 21
297.0
 12
0.0
 22
0.0
 32
0.0
 14
1.0000000000E+20
 24
1.0000000000E+20
 34
1.0000000000E+20
 15
-1.0000000000E+20
 25
-1.0000000000E+20
 35
-1.0000000000E+20
146
0.0
 13
0.0
 23
0.0
 33
0.0
 16
1.0
 26
0.0
 36
0.0
 17
0.0
 27
1.0
 37
0.0
 76
     0
330
1B
  0
LAYOUT
  5
26
102
{ACAD_REACTORS
330
1A
102
}
330
1A
100
AcDbPlotSettings
  1

  2
none_device
  4

  6

 40
0.0
 41
0.0
 42
0.0
 43
0.0
 44
0.0
 45
0.0
 46
0.0
 47
0.0
 48
0.0
 49
0.0
140
0.0
141
0.0
142
1.0
143
1.0
 70
   688
 72
     1
 73
     0
 74
     5
  7

 75
    16
147
1.0
148
0.0
149
0.0
100
AcDbLayout
  1
Layout2
 70
     1
 71
     2
 10
0.0
 20
0.0
 11
0.0
 21
0.0
 12
0.0
 22
0.0
 32
0.0
 14
0.0
 24
0.0
 34
0.0
 15
0.0
 25
0.0
 35
0.0
146
0.0
 13
0.0
 23
0.0
 33
0.0
 16
1.0
 26
0.0
 36
0.0
 17
0.0
 27
1.0
 37
0.0
 76
     0
330
23
  0
LAYOUT
  5
22
102
{ACAD_REACTORS
330
1A
102
}
330
1A
100
AcDbPlotSettings
  1

  2
none_device
  4
Letter_(8.50_x_11.00_Inches)
  6

 40
6.35
 41
6.35
 42
6.35000508
 43
6.35000508
 44
215.9
 45
279.4
 46
0.0
 47
0.0
 48
0.0
 49
0.0
140
0.0
141
0.0
142
1.0
143
1.0
 70
  1712
 72
     1
 73
     0
 74
     0
  7

 75
     0
147
1.0
148
0.0
149
0.0
100
AcDbLayout
  1
Model
 70
     1
 71
     0
 10
0.0
 20
0.0
 11
279.4
 21
215.9
 12
0.0
 22
0.0
 32
0.0
 14
0.0
 24
0.0
 34
0.0
 15
279.4
 25
215.9
 35
0.0
146
0.0
 13
0.0
 23
0.0
 33
0.0
 16
1.0
 26
0.0
 36
0.0
 17
0.0
 27
1.0
 37
0.0
 76
     0
330
1F
331
29
  0
MLINESTYLE
  5
18
102
{ACAD_REACTORS
330
17
102
}
330
17
100
AcDbMlineStyle
  2
Standard
 70
     0
  3

 62
   256
 51
90.0
 52
90.0
 71
     2
 49
0.5
 62
   256
  6
BYLAYER
 49
-0.5
 62
   256
  6
BYLAYER
  0
ACDBPLACEHOLDER
  5
F
102
{ACAD_REACTORS
330
E
102
}
330
E
  0
SCALE
  5
48
102
{ACAD_REACTORS
330
47
102
}
330
47
100
AcDbScale
 70
     0
300
1:1
140
1.0
141
1.0
290
     1
  0
SCALE
  5
49
102
{ACAD_REACTORS
330
47
102
}
330
47
100
AcDbScale
 70
     0
300
1:2
140
1.0
141
2.0
290
     0
  0
SCALE
  5
4A
102
{ACAD_REACTORS
330
47
102
}
330
47
100
AcDbScale
 70
     0
300
1:4
140
1.0
141
4.0
290
     0
  0
SCALE
  5
4B
102
{ACAD_REACTORS
330
47
102
}
330
47
100
AcDbScale
 70
     0
300
1:5
140
1.0
141
5.0
290
     0
  0
SCALE
  5
4C
102
{ACAD_REACTORS
330
47
102
}
330
47
100
AcDbScale
 70
     0
300
1:8
140
1.0
141
8.0
290
     0
  0
SCALE
  5
4D
102
{ACAD_REACTORS
330
47
102
}
330
47
100
AcDbScale
 70
     0
300
1:10
140
1.0
141
10.0
290
     0
  0
SCALE
  5
4E
102
{ACAD_REACTORS
330
47
102
}
330
47
100
AcDbScale
 70
     0
300
1:16
140
1.0
141
16.0
290
     0
  0
SCALE
  5
4F
102
{ACAD_REACTORS
330
47
102
}
330
47
100
AcDbScale
 70
     0
300
1:20
140
1.0
141
20.0
290
     0
  0
SCALE
  5
50
102
{ACAD_REACTORS
330
47
102
}
330
47
100
AcDbScale
 70
     0
300
1:30
140
1.0
141
30.0
290
     0
  0
SCALE
  5
51
102
{ACAD_REACTORS
330
47
102
}
330
47
100
AcDbScale
 70
     0
300
1:40
140
1.0
141
40.0
290
     0
  0
SCALE
  5
52
102
{ACAD_REACTORS
330
47
102
}
330
47
100
AcDbScale
 70
     0
300
1:50
140
1.0
141
50.0
290
     0
  0
SCALE
  5
53
102
{ACAD_REACTORS
330
47
102
}
330
47
100
AcDbScale
 70
     0
300
1:100
140
1.0
141
100.0
290
     0
  0
SCALE
  5
54
102
{ACAD_REACTORS
330
47
102
}
330
47
100
AcDbScale
 70
     0
300
2:1
140
2.0
141
1.0
290
     0
  0
SCALE
  5
55
102
{ACAD_REACTORS
330
47
102
}
330
47
100
AcDbScale
 70
     0
300
4:1
140
4.0
141
1.0
290
     0
  0
SCALE
  5
56
102
{ACAD_REACTORS
330
47
102
}
330
47
100
AcDbScale
 70
     0
300
8:1
140
8.0
141
1.0
290
     0
  0
SCALE
  5
57
102
{ACAD_REACTORS
330
47
102
}
330
47
100
AcDbScale
 70
     0
300
10:1
140
10.0
141
1.0
290
     0
  0
SCALE
  5
58
102
{ACAD_REACTORS
330
47
102
}
330
47
100
AcDbScale
 70
     0
300
100:1
140
100.0
141
1.0
290
     0
  0
SCALE
  5
59
102
{ACAD_REACTORS
330
47
102
}
330
47
100
AcDbScale
 70
     0
300
1/128" = 1'-0"
140
0.0078125
141
12.0
290
     0
  0
SCALE
  5
5A
102
{ACAD_REACTORS
330
47
102
}
330
47
100
AcDbScale
 70
     0
300
1/64" = 1'-0"
140
0.015625
141
12.0
290
     0
  0
SCALE
  5
5B
102
{ACAD_REACTORS
330
47
102
}
330
47
100
AcDbScale
 70
     0
300
1/32" = 1'-0"
140
0.03125
141
12.0
290
     0
  0
SCALE
  5
5C
102
{ACAD_REACTORS
330
47
102
}
330
47
100
AcDbScale
 70
     0
300
1/16" = 1'-0"
140
0.0625
141
12.0
290
     0
  0
SCALE
  5
5D
102
{ACAD_REACTORS
330
47
102
}
330
47
100
AcDbScale
 70
     0
300
3/32" = 1'-0"
140
0.09375
141
12.0
290
     0
  0
SCALE
  5
5E
102
{ACAD_REACTORS
330
47
102
}
330
47
100
AcDbScale
 70
     0
300
1/8" = 1'-0"
140
0.125
141
12.0
290
     0
  0
SCALE
  5
5F
102
{ACAD_REACTORS
330
47
102
}
330
47
100
AcDbScale
 70
     0
300
3/16" = 1'-0"
140
0.1875
141
12.0
290
     0
  0
SCALE
  5
60
102
{ACAD_REACTORS
330
47
102
}
330
47
100
AcDbScale
 70
     0
300
1/4" = 1'-0"
140
0.25
141
12.0
290
     0
  0
SCALE
  5
61
102
{ACAD_REACTORS
330
47
102
}
330
47
100
AcDbScale
 70
     0
300
3/8" = 1'-0"
140
0.375
141
12.0
290
     0
  0
SCALE
  5
62
102
{ACAD_REACTORS
330
47
102
}
330
47
100
AcDbScale
 70
     0
300
1/2" = 1'-0"
140
0.5
141
12.0
290
     0
  0
SCALE
  5
63
102
{ACAD_REACTORS
330
47
102
}
330
47
100
AcDbScale
 70
     0
300
3/4" = 1'-0"
140
0.75
141
12.0
290
     0
  0
SCALE
  5
64
102
{ACAD_REACTORS
330
47
102
}
330
47
100
AcDbScale
 70
     0
300
1" = 1'-0"
140
1.0
141
12.0
290
     0
  0
SCALE
  5
65
102
{ACAD_REACTORS
330
47
102
}
330
47
100
AcDbScale
 70
     0
300
1-1/2" = 1'-0"
140
1.5
141
12.0
290
     0
  0
SCALE
  5
66
102
{ACAD_REACTORS
330
47
102
}
330
47
100
AcDbScale
 70
     0
300
3" = 1'-0"
140
3.0
141
12.0
290
     0
  0
SCALE
  5
67
102
{ACAD_REACTORS
330
47
102
}
330
47
100
AcDbScale
 70
     0
300
6" = 1'-0"
140
6.0
141
12.0
290
     0
  0
SCALE
  5
68
102
{ACAD_REACTORS
330
47
102
}
330
47
100
AcDbScale
 70
     0
300
1'-0" = 1'-0"
140
12.0
141
12.0
290
     0
  0
ENDSEC
  0
EOF
